ISO-10303-21;
HEADER;
FILE_DESCRIPTION(('', 'CAx-IF Rec.Pracs.---Representation and Presentation of Product Manufacturing Information (PMI)---4.0---2014-10-13'),'2;1');
FILE_NAME('C:/Program Files/Kubotek/KeyCreatorPro.2021.SP1/STEP/SG60-325.STP', '2021-05-20T16:54:20',(''), (''), 'Kubotek Kosmos Version 3.0.7268.7268', 'KeyCreator Pro', '');
FILE_SCHEMA(('AP242_MANAGED_MODEL_BASED_3D_ENGINEERING_MIM_LF  { 1 0 10303 442 1 1 4 }'));
ENDSEC;
DATA;
#1=PRODUCT_DEFINITION_CONTEXT('',#4,'design');
#2=PRODUCT_CONTEXT('',#4,'mechanical');
#3=APPLICATION_PROTOCOL_DEFINITION('international standard','ap242_managed_model_based_3d_engineering',2011,#4);
#4=APPLICATION_CONTEXT('managed model based 3d engineering');
#10=DIMENSIONAL_EXPONENTS(1.0,0.0,0.0,0.0,0.0,0.0,0.0);
#11=DIMENSIONAL_EXPONENTS(0.0,0.0,0.0,0.0,0.0,0.0,0.0);
#12=(LENGTH_UNIT()NAMED_UNIT(#10)SI_UNIT(.MILLI.,.METRE.));
#13=(NAMED_UNIT(#11)PLANE_ANGLE_UNIT()SI_UNIT($,.RADIAN.));
#14=(NAMED_UNIT(#11)SI_UNIT($,.STERADIAN.)SOLID_ANGLE_UNIT());
#15=LENGTH_MEASURE_WITH_UNIT(LENGTH_MEASURE(25.4),#12);
#16= (CONVERSION_BASED_UNIT('INCH',#15)LENGTH_UNIT()NAMED_UNIT(#10));
#17=UNCERTAINTY_MEASURE_WITH_UNIT(LENGTH_MEASURE(1.0E-006),#16,'','');
#18=(GEOMETRIC_REPRESENTATION_CONTEXT(3)GLOBAL_UNCERTAINTY_ASSIGNED_CONTEXT((#17))GLOBAL_UNIT_ASSIGNED_CONTEXT((#16,#13,#14))REPRESENTATION_CONTEXT('NONE','WORKSPACE'));
#20=CARTESIAN_POINT('',(0.00000000000000,0.00000000000000,0.00000000000000));
#21=DIRECTION('',(0.00000000000000,0.00000000000000,1.00000000000000));
#22=DIRECTION('',(1.00000000000000,0.00000000000000,0.00000000000000));
#23=AXIS2_PLACEMENT_3D('',#20,#21,#22);
#24=CARTESIAN_POINT('',(6.92941359852333,-0.605234198586919,-0.625000000000000));
#25=VERTEX_POINT('',#24);
#26=CARTESIAN_POINT('',(6.92941359852333,5.39476580141308,-0.625000000000000));
#27=VERTEX_POINT('',#26);
#28=CARTESIAN_POINT('',(6.92941359852333,2.39476580141308,-0.625000000000000));
#29=DIRECTION('',(0.00000000000000,1.00000000000000,0.00000000000000));
#30=VECTOR('',#29,1.00000000000000);
#31=LINE('',#28,#30);
#32=EDGE_CURVE('',#25,#27,#31,.T.);
#33=ORIENTED_EDGE('',*,*,#32,.T.);
#34=CARTESIAN_POINT('',(6.92941359852333,5.39476580141308,-0.375000000000000));
#35=VERTEX_POINT('',#34);
#36=CARTESIAN_POINT('',(6.92941359852333,5.39476580141308,-0.625000000000000));
#37=DIRECTION('',(1.22464679914735E-16,0.00000000000000,1.00000000000000));
#38=VECTOR('',#37,1.00000000000000);
#39=LINE('',#36,#38);
#40=EDGE_CURVE('',#27,#35,#39,.T.);
#41=ORIENTED_EDGE('',*,*,#40,.T.);
#42=CARTESIAN_POINT('',(6.92941359852333,-0.605234198586919,-0.375000000000000));
#43=VERTEX_POINT('',#42);
#44=CARTESIAN_POINT('',(6.92941359852333,2.39476580141308,-0.375000000000000));
#45=DIRECTION('',(-0.00000000000000,-1.00000000000000,0.00000000000000));
#46=VECTOR('',#45,1.00000000000000);
#47=LINE('',#44,#46);
#48=EDGE_CURVE('',#35,#43,#47,.T.);
#49=ORIENTED_EDGE('',*,*,#48,.T.);
#50=CARTESIAN_POINT('',(6.92941359852333,-0.605234198586919,-0.625000000000000));
#51=DIRECTION('',(-1.22464679914735E-16,0.00000000000000,-1.00000000000000));
#52=VECTOR('',#51,1.00000000000000);
#53=LINE('',#50,#52);
#54=EDGE_CURVE('',#43,#25,#53,.T.);
#55=ORIENTED_EDGE('',*,*,#54,.T.);
#56=EDGE_LOOP('',(#33,#41,#49,#55));
#57=FACE_OUTER_BOUND('',#56,.T.);
#58=CARTESIAN_POINT('',(6.92941359852333,2.39476580141308,-0.500000000000000));
#59=DIRECTION('',(1.00000000000000,0.00000000000000,-1.22464679914735E-16));
#60=DIRECTION('',(-1.22464679914735E-16,0.00000000000000,-1.00000000000000));
#61=AXIS2_PLACEMENT_3D('',#58,#59,#60);
#62=PLANE('',#61);
#63=ADVANCED_FACE('',(#57),#62,.T.);
#64=ORIENTED_EDGE('',*,*,#48,.F.);
#65=CARTESIAN_POINT('',(7.27941359852333,5.39476580141308,-0.375000000000000));
#66=VERTEX_POINT('',#65);
#67=CARTESIAN_POINT('',(7.27941359852333,5.39476580141308,-0.375000000000000));
#68=DIRECTION('',(1.00000000000000,-0.00000000000000,-1.22464679914735E-16));
#69=VECTOR('',#68,1.00000000000000);
#70=LINE('',#67,#69);
#71=EDGE_CURVE('',#35,#66,#70,.T.);
#72=ORIENTED_EDGE('',*,*,#71,.T.);
#73=CARTESIAN_POINT('',(7.27941359852333,-0.605234198586919,-0.375000000000000));
#74=VERTEX_POINT('',#73);
#75=CARTESIAN_POINT('',(7.27941359852333,2.39476580141308,-0.375000000000000));
#76=DIRECTION('',(0.00000000000000,1.00000000000000,0.00000000000000));
#77=VECTOR('',#76,1.00000000000000);
#78=LINE('',#75,#77);
#79=EDGE_CURVE('',#74,#66,#78,.T.);
#80=ORIENTED_EDGE('',*,*,#79,.F.);
#81=CARTESIAN_POINT('',(7.27941359852333,-0.605234198586919,-0.375000000000000));
#82=DIRECTION('',(-1.00000000000000,0.00000000000000,1.22464679914735E-16));
#83=VECTOR('',#82,1.00000000000000);
#84=LINE('',#81,#83);
#85=EDGE_CURVE('',#74,#43,#84,.T.);
#86=ORIENTED_EDGE('',*,*,#85,.T.);
#87=EDGE_LOOP('',(#64,#72,#80,#86));
#88=FACE_OUTER_BOUND('',#87,.T.);
#89=CARTESIAN_POINT('',(7.10441359852333,2.39476580141308,-0.375000000000000));
#90=DIRECTION('',(-1.22464679914735E-16,0.00000000000000,-1.00000000000000));
#91=DIRECTION('',(-1.00000000000000,0.00000000000000,1.22464679914735E-16));
#92=AXIS2_PLACEMENT_3D('',#89,#90,#91);
#93=PLANE('',#92);
#94=ADVANCED_FACE('',(#88),#93,.T.);
#95=ORIENTED_EDGE('',*,*,#79,.T.);
#96=CARTESIAN_POINT('',(7.27941359852333,5.39476580141308,-0.625000000000000));
#97=VERTEX_POINT('',#96);
#98=CARTESIAN_POINT('',(7.27941359852333,5.39476580141308,-0.625000000000000));
#99=DIRECTION('',(-1.22464679914735E-16,0.00000000000000,-1.00000000000000));
#100=VECTOR('',#99,1.00000000000000);
#101=LINE('',#98,#100);
#102=EDGE_CURVE('',#66,#97,#101,.T.);
#103=ORIENTED_EDGE('',*,*,#102,.T.);
#104=CARTESIAN_POINT('',(7.27941359852333,-0.605234198586919,-0.625000000000000));
#105=VERTEX_POINT('',#104);
#106=CARTESIAN_POINT('',(7.27941359852333,2.39476580141308,-0.625000000000000));
#107=DIRECTION('',(-0.00000000000000,-1.00000000000000,0.00000000000000));
#108=VECTOR('',#107,1.00000000000000);
#109=LINE('',#106,#108);
#110=EDGE_CURVE('',#97,#105,#109,.T.);
#111=ORIENTED_EDGE('',*,*,#110,.T.);
#112=CARTESIAN_POINT('',(7.27941359852333,-0.605234198586919,-0.625000000000000));
#113=DIRECTION('',(1.22464679914735E-16,0.00000000000000,1.00000000000000));
#114=VECTOR('',#113,1.00000000000000);
#115=LINE('',#112,#114);
#116=EDGE_CURVE('',#105,#74,#115,.T.);
#117=ORIENTED_EDGE('',*,*,#116,.T.);
#118=EDGE_LOOP('',(#95,#103,#111,#117));
#119=FACE_OUTER_BOUND('',#118,.T.);
#120=CARTESIAN_POINT('',(7.27941359852333,2.39476580141308,-0.500000000000000));
#121=DIRECTION('',(-1.00000000000000,0.00000000000000,1.22464679914735E-16));
#122=DIRECTION('',(1.22464679914735E-16,0.00000000000000,1.00000000000000));
#123=AXIS2_PLACEMENT_3D('',#120,#121,#122);
#124=PLANE('',#123);
#125=ADVANCED_FACE('',(#119),#124,.T.);
#126=ORIENTED_EDGE('',*,*,#110,.F.);
#127=CARTESIAN_POINT('',(6.92941359852333,5.39476580141308,-0.625000000000000));
#128=DIRECTION('',(-1.00000000000000,0.00000000000000,1.22464679914735E-16));
#129=VECTOR('',#128,1.00000000000000);
#130=LINE('',#127,#129);
#131=EDGE_CURVE('',#97,#27,#130,.T.);
#132=ORIENTED_EDGE('',*,*,#131,.T.);
#133=ORIENTED_EDGE('',*,*,#32,.F.);
#134=CARTESIAN_POINT('',(6.92941359852333,-0.605234198586919,-0.625000000000000));
#135=DIRECTION('',(1.00000000000000,0.00000000000000,-1.22464679914735E-16));
#136=VECTOR('',#135,1.00000000000000);
#137=LINE('',#134,#136);
#138=EDGE_CURVE('',#25,#105,#137,.T.);
#139=ORIENTED_EDGE('',*,*,#138,.T.);
#140=EDGE_LOOP('',(#126,#132,#133,#139));
#141=FACE_OUTER_BOUND('',#140,.T.);
#142=CARTESIAN_POINT('',(7.10441359852333,2.39476580141308,-0.625000000000000));
#143=DIRECTION('',(1.22464679914735E-16,0.00000000000000,1.00000000000000));
#144=DIRECTION('',(1.00000000000000,0.00000000000000,-1.22464679914735E-16));
#145=AXIS2_PLACEMENT_3D('',#142,#143,#144);
#146=PLANE('',#145);
#147=ADVANCED_FACE('',(#141),#146,.T.);
#148=CARTESIAN_POINT('',(6.80441359852333,-0.605234198586919,-0.375000000000000));
#149=VERTEX_POINT('',#148);
#150=CARTESIAN_POINT('',(6.80441359852333,5.39476580141308,-0.375000000000000));
#151=VERTEX_POINT('',#150);
#152=CARTESIAN_POINT('',(6.80441359852333,2.39476580141308,-0.375000000000000));
#153=DIRECTION('',(0.00000000000000,1.00000000000000,0.00000000000000));
#154=VECTOR('',#153,1.00000000000000);
#155=LINE('',#152,#154);
#156=EDGE_CURVE('',#149,#151,#155,.T.);
#157=ORIENTED_EDGE('',*,*,#156,.T.);
#158=CARTESIAN_POINT('',(6.80441359852333,5.39476580141308,-0.625000000000000));
#159=VERTEX_POINT('',#158);
#160=CARTESIAN_POINT('',(6.80441359852333,5.39476580141308,-0.625000000000000));
#161=DIRECTION('',(-1.22464679914735E-16,0.00000000000000,-1.00000000000000));
#162=VECTOR('',#161,1.00000000000000);
#163=LINE('',#160,#162);
#164=EDGE_CURVE('',#151,#159,#163,.T.);
#165=ORIENTED_EDGE('',*,*,#164,.T.);
#166=CARTESIAN_POINT('',(6.80441359852333,-0.605234198586919,-0.625000000000000));
#167=VERTEX_POINT('',#166);
#168=CARTESIAN_POINT('',(6.80441359852333,2.39476580141308,-0.625000000000000));
#169=DIRECTION('',(0.00000000000000,1.00000000000000,0.00000000000000));
#170=VECTOR('',#169,1.00000000000000);
#171=LINE('',#168,#170);
#172=EDGE_CURVE('',#167,#159,#171,.T.);
#173=ORIENTED_EDGE('',*,*,#172,.F.);
#174=CARTESIAN_POINT('',(6.80441359852333,-0.605234198586919,-0.625000000000000));
#175=DIRECTION('',(1.22464679914735E-16,0.00000000000000,1.00000000000000));
#176=VECTOR('',#175,1.00000000000000);
#177=LINE('',#174,#176);
#178=EDGE_CURVE('',#167,#149,#177,.T.);
#179=ORIENTED_EDGE('',*,*,#178,.T.);
#180=EDGE_LOOP('',(#157,#165,#173,#179));
#181=FACE_OUTER_BOUND('',#180,.T.);
#182=CARTESIAN_POINT('',(6.80441359852333,2.39476580141308,-0.500000000000000));
#183=DIRECTION('',(-1.00000000000000,0.00000000000000,1.22464679914735E-16));
#184=DIRECTION('',(1.22464679914735E-16,0.00000000000000,1.00000000000000));
#185=AXIS2_PLACEMENT_3D('',#182,#183,#184);
#186=PLANE('',#185);
#187=ADVANCED_FACE('',(#181),#186,.T.);
#188=ORIENTED_EDGE('',*,*,#172,.T.);
#189=CARTESIAN_POINT('',(6.47941359852333,5.39476580141308,-0.625000000000000));
#190=VERTEX_POINT('',#189);
#191=CARTESIAN_POINT('',(6.47941359852333,5.39476580141308,-0.625000000000000));
#192=DIRECTION('',(-1.00000000000000,0.00000000000000,1.22464679914735E-16));
#193=VECTOR('',#192,1.00000000000000);
#194=LINE('',#191,#193);
#195=EDGE_CURVE('',#159,#190,#194,.T.);
#196=ORIENTED_EDGE('',*,*,#195,.T.);
#197=CARTESIAN_POINT('',(6.47941359852333,-0.605234198586919,-0.625000000000000));
#198=VERTEX_POINT('',#197);
#199=CARTESIAN_POINT('',(6.47941359852333,2.39476580141308,-0.625000000000000));
#200=DIRECTION('',(-0.00000000000000,-1.00000000000000,0.00000000000000));
#201=VECTOR('',#200,1.00000000000000);
#202=LINE('',#199,#201);
#203=EDGE_CURVE('',#190,#198,#202,.T.);
#204=ORIENTED_EDGE('',*,*,#203,.T.);
#205=CARTESIAN_POINT('',(6.47941359852333,-0.605234198586919,-0.625000000000000));
#206=DIRECTION('',(1.00000000000000,0.00000000000000,-1.22464679914735E-16));
#207=VECTOR('',#206,1.00000000000000);
#208=LINE('',#205,#207);
#209=EDGE_CURVE('',#198,#167,#208,.T.);
#210=ORIENTED_EDGE('',*,*,#209,.T.);
#211=EDGE_LOOP('',(#188,#196,#204,#210));
#212=FACE_OUTER_BOUND('',#211,.T.);
#213=CARTESIAN_POINT('',(6.64191359852333,2.39476580141308,-0.625000000000000));
#214=DIRECTION('',(1.22464679914735E-16,0.00000000000000,1.00000000000000));
#215=DIRECTION('',(1.00000000000000,0.00000000000000,-1.22464679914735E-16));
#216=AXIS2_PLACEMENT_3D('',#213,#214,#215);
#217=PLANE('',#216);
#218=ADVANCED_FACE('',(#212),#217,.T.);
#219=ORIENTED_EDGE('',*,*,#203,.F.);
#220=CARTESIAN_POINT('',(6.47941359852333,5.39476580141308,-0.750000000000000));
#221=VERTEX_POINT('',#220);
#222=CARTESIAN_POINT('',(6.47941359852333,5.39476580141308,-0.750000000000000));
#223=DIRECTION('',(-1.22464679914735E-16,0.00000000000000,-1.00000000000000));
#224=VECTOR('',#223,1.00000000000000);
#225=LINE('',#222,#224);
#226=EDGE_CURVE('',#190,#221,#225,.T.);
#227=ORIENTED_EDGE('',*,*,#226,.T.);
#228=CARTESIAN_POINT('',(6.47941359852333,-0.605234198586919,-0.750000000000000));
#229=VERTEX_POINT('',#228);
#230=CARTESIAN_POINT('',(6.47941359852333,2.39476580141308,-0.750000000000000));
#231=DIRECTION('',(0.00000000000000,1.00000000000000,0.00000000000000));
#232=VECTOR('',#231,1.00000000000000);
#233=LINE('',#230,#232);
#234=EDGE_CURVE('',#229,#221,#233,.T.);
#235=ORIENTED_EDGE('',*,*,#234,.F.);
#236=CARTESIAN_POINT('',(6.47941359852333,-0.605234198586919,-0.750000000000000));
#237=DIRECTION('',(1.22464679914735E-16,0.00000000000000,1.00000000000000));
#238=VECTOR('',#237,1.00000000000000);
#239=LINE('',#236,#238);
#240=EDGE_CURVE('',#229,#198,#239,.T.);
#241=ORIENTED_EDGE('',*,*,#240,.T.);
#242=EDGE_LOOP('',(#219,#227,#235,#241));
#243=FACE_OUTER_BOUND('',#242,.T.);
#244=CARTESIAN_POINT('',(6.47941359852333,2.39476580141308,-0.687500000000000));
#245=DIRECTION('',(-1.00000000000000,0.00000000000000,1.22464679914735E-16));
#246=DIRECTION('',(1.22464679914735E-16,0.00000000000000,1.00000000000000));
#247=AXIS2_PLACEMENT_3D('',#244,#245,#246);
#248=PLANE('',#247);
#249=ADVANCED_FACE('',(#243),#248,.T.);
#250=ORIENTED_EDGE('',*,*,#234,.T.);
#251=CARTESIAN_POINT('',(7.72941359852333,5.39476580141308,-0.750000000000000));
#252=VERTEX_POINT('',#251);
#253=CARTESIAN_POINT('',(6.47941359852333,5.39476580141308,-0.750000000000000));
#254=DIRECTION('',(1.00000000000000,0.00000000000000,-1.22464679914735E-16));
#255=VECTOR('',#254,1.00000000000000);
#256=LINE('',#253,#255);
#257=EDGE_CURVE('',#221,#252,#256,.T.);
#258=ORIENTED_EDGE('',*,*,#257,.T.);
#259=CARTESIAN_POINT('',(7.72941359852333,-0.605234198586919,-0.750000000000000));
#260=VERTEX_POINT('',#259);
#261=CARTESIAN_POINT('',(7.72941359852333,2.39476580141308,-0.750000000000000));
#262=DIRECTION('',(-0.00000000000000,-1.00000000000000,0.00000000000000));
#263=VECTOR('',#262,1.00000000000000);
#264=LINE('',#261,#263);
#265=EDGE_CURVE('',#252,#260,#264,.T.);
#266=ORIENTED_EDGE('',*,*,#265,.T.);
#267=CARTESIAN_POINT('',(6.47941359852333,-0.605234198586919,-0.750000000000000));
#268=DIRECTION('',(-1.00000000000000,0.00000000000000,1.22464679914735E-16));
#269=VECTOR('',#268,1.00000000000000);
#270=LINE('',#267,#269);
#271=EDGE_CURVE('',#260,#229,#270,.T.);
#272=ORIENTED_EDGE('',*,*,#271,.T.);
#273=EDGE_LOOP('',(#250,#258,#266,#272));
#274=FACE_OUTER_BOUND('',#273,.T.);
#275=CARTESIAN_POINT('',(7.10441359852333,2.39476580141308,-0.750000000000000));
#276=DIRECTION('',(-1.22464679914735E-16,0.00000000000000,-1.00000000000000));
#277=DIRECTION('',(-1.00000000000000,0.00000000000000,1.22464679914735E-16));
#278=AXIS2_PLACEMENT_3D('',#275,#276,#277);
#279=PLANE('',#278);
#280=ADVANCED_FACE('',(#274),#279,.T.);
#281=ORIENTED_EDGE('',*,*,#265,.F.);
#282=CARTESIAN_POINT('',(7.72941359852333,5.39476580141308,-0.625000000000000));
#283=VERTEX_POINT('',#282);
#284=CARTESIAN_POINT('',(7.72941359852333,5.39476580141308,-0.750000000000000));
#285=DIRECTION('',(1.22464679914735E-16,0.00000000000000,1.00000000000000));
#286=VECTOR('',#285,1.00000000000000);
#287=LINE('',#284,#286);
#288=EDGE_CURVE('',#252,#283,#287,.T.);
#289=ORIENTED_EDGE('',*,*,#288,.T.);
#290=CARTESIAN_POINT('',(7.72941359852333,-0.605234198586919,-0.625000000000000));
#291=VERTEX_POINT('',#290);
#292=CARTESIAN_POINT('',(7.72941359852333,2.39476580141308,-0.625000000000000));
#293=DIRECTION('',(-0.00000000000000,-1.00000000000000,0.00000000000000));
#294=VECTOR('',#293,1.00000000000000);
#295=LINE('',#292,#294);
#296=EDGE_CURVE('',#283,#291,#295,.T.);
#297=ORIENTED_EDGE('',*,*,#296,.T.);
#298=CARTESIAN_POINT('',(7.72941359852333,-0.605234198586919,-0.750000000000000));
#299=DIRECTION('',(-1.22464679914735E-16,0.00000000000000,-1.00000000000000));
#300=VECTOR('',#299,1.00000000000000);
#301=LINE('',#298,#300);
#302=EDGE_CURVE('',#291,#260,#301,.T.);
#303=ORIENTED_EDGE('',*,*,#302,.T.);
#304=EDGE_LOOP('',(#281,#289,#297,#303));
#305=FACE_OUTER_BOUND('',#304,.T.);
#306=CARTESIAN_POINT('',(7.72941359852333,2.39476580141308,-0.687500000000000));
#307=DIRECTION('',(1.00000000000000,0.00000000000000,-1.22464679914735E-16));
#308=DIRECTION('',(-1.22464679914735E-16,0.00000000000000,-1.00000000000000));
#309=AXIS2_PLACEMENT_3D('',#306,#307,#308);
#310=PLANE('',#309);
#311=ADVANCED_FACE('',(#305),#310,.T.);
#312=ORIENTED_EDGE('',*,*,#296,.F.);
#313=CARTESIAN_POINT('',(7.40441359852333,5.39476580141308,-0.625000000000000));
#314=VERTEX_POINT('',#313);
#315=CARTESIAN_POINT('',(7.40441359852333,5.39476580141308,-0.625000000000000));
#316=DIRECTION('',(-1.00000000000000,0.00000000000000,1.22464679914735E-16));
#317=VECTOR('',#316,1.00000000000000);
#318=LINE('',#315,#317);
#319=EDGE_CURVE('',#283,#314,#318,.T.);
#320=ORIENTED_EDGE('',*,*,#319,.T.);
#321=CARTESIAN_POINT('',(7.40441359852333,-0.605234198586919,-0.625000000000000));
#322=VERTEX_POINT('',#321);
#323=CARTESIAN_POINT('',(7.40441359852333,2.39476580141308,-0.625000000000000));
#324=DIRECTION('',(0.00000000000000,1.00000000000000,0.00000000000000));
#325=VECTOR('',#324,1.00000000000000);
#326=LINE('',#323,#325);
#327=EDGE_CURVE('',#322,#314,#326,.T.);
#328=ORIENTED_EDGE('',*,*,#327,.F.);
#329=CARTESIAN_POINT('',(7.40441359852333,-0.605234198586919,-0.625000000000000));
#330=DIRECTION('',(1.00000000000000,0.00000000000000,-1.22464679914735E-16));
#331=VECTOR('',#330,1.00000000000000);
#332=LINE('',#329,#331);
#333=EDGE_CURVE('',#322,#291,#332,.T.);
#334=ORIENTED_EDGE('',*,*,#333,.T.);
#335=EDGE_LOOP('',(#312,#320,#328,#334));
#336=FACE_OUTER_BOUND('',#335,.T.);
#337=CARTESIAN_POINT('',(7.56691359852333,2.39476580141308,-0.625000000000000));
#338=DIRECTION('',(1.22464679914735E-16,0.00000000000000,1.00000000000000));
#339=DIRECTION('',(1.00000000000000,0.00000000000000,-1.22464679914735E-16));
#340=AXIS2_PLACEMENT_3D('',#337,#338,#339);
#341=PLANE('',#340);
#342=ADVANCED_FACE('',(#336),#341,.T.);
#343=ORIENTED_EDGE('',*,*,#327,.T.);
#344=CARTESIAN_POINT('',(7.40441359852333,5.39476580141308,-0.375000000000000));
#345=VERTEX_POINT('',#344);
#346=CARTESIAN_POINT('',(7.40441359852333,5.39476580141308,-0.625000000000000));
#347=DIRECTION('',(1.22464679914735E-16,0.00000000000000,1.00000000000000));
#348=VECTOR('',#347,1.00000000000000);
#349=LINE('',#346,#348);
#350=EDGE_CURVE('',#314,#345,#349,.T.);
#351=ORIENTED_EDGE('',*,*,#350,.T.);
#352=CARTESIAN_POINT('',(7.40441359852333,-0.605234198586919,-0.375000000000000));
#353=VERTEX_POINT('',#352);
#354=CARTESIAN_POINT('',(7.40441359852333,2.39476580141308,-0.375000000000000));
#355=DIRECTION('',(0.00000000000000,1.00000000000000,0.00000000000000));
#356=VECTOR('',#355,1.00000000000000);
#357=LINE('',#354,#356);
#358=EDGE_CURVE('',#353,#345,#357,.T.);
#359=ORIENTED_EDGE('',*,*,#358,.F.);
#360=CARTESIAN_POINT('',(7.40441359852333,-0.605234198586919,-0.625000000000000));
#361=DIRECTION('',(-1.22464679914735E-16,0.00000000000000,-1.00000000000000));
#362=VECTOR('',#361,1.00000000000000);
#363=LINE('',#360,#362);
#364=EDGE_CURVE('',#353,#322,#363,.T.);
#365=ORIENTED_EDGE('',*,*,#364,.T.);
#366=EDGE_LOOP('',(#343,#351,#359,#365));
#367=FACE_OUTER_BOUND('',#366,.T.);
#368=CARTESIAN_POINT('',(7.40441359852333,2.39476580141308,-0.500000000000000));
#369=DIRECTION('',(1.00000000000000,0.00000000000000,-1.22464679914735E-16));
#370=DIRECTION('',(-1.22464679914735E-16,0.00000000000000,-1.00000000000000));
#371=AXIS2_PLACEMENT_3D('',#368,#369,#370);
#372=PLANE('',#371);
#373=ADVANCED_FACE('',(#367),#372,.T.);
#374=ORIENTED_EDGE('',*,*,#358,.T.);
#375=CARTESIAN_POINT('',(8.72941359852333,5.39476580141308,-0.375000000000000));
#376=VERTEX_POINT('',#375);
#377=CARTESIAN_POINT('',(8.72941359852333,5.39476580141308,-0.375000000000000));
#378=DIRECTION('',(1.00000000000000,-0.00000000000000,-1.22464679914735E-16));
#379=VECTOR('',#378,1.00000000000000);
#380=LINE('',#377,#379);
#381=EDGE_CURVE('',#345,#376,#380,.T.);
#382=ORIENTED_EDGE('',*,*,#381,.T.);
#383=CARTESIAN_POINT('',(8.72941359852333,-0.605234198586919,-0.375000000000000));
#384=VERTEX_POINT('',#383);
#385=CARTESIAN_POINT('',(8.72941359852333,2.39476580141308,-0.375000000000000));
#386=DIRECTION('',(0.00000000000000,1.00000000000000,0.00000000000000));
#387=VECTOR('',#386,1.00000000000000);
#388=LINE('',#385,#387);
#389=EDGE_CURVE('',#384,#376,#388,.T.);
#390=ORIENTED_EDGE('',*,*,#389,.F.);
#391=CARTESIAN_POINT('',(8.72941359852333,-0.605234198586919,-0.375000000000000));
#392=DIRECTION('',(-1.00000000000000,0.00000000000000,1.22464679914735E-16));
#393=VECTOR('',#392,1.00000000000000);
#394=LINE('',#391,#393);
#395=EDGE_CURVE('',#384,#353,#394,.T.);
#396=ORIENTED_EDGE('',*,*,#395,.T.);
#397=EDGE_LOOP('',(#374,#382,#390,#396));
#398=FACE_OUTER_BOUND('',#397,.T.);
#399=CARTESIAN_POINT('',(8.06691359852333,2.39476580141308,-0.375000000000000));
#400=DIRECTION('',(-1.22464679914735E-16,0.00000000000000,-1.00000000000000));
#401=DIRECTION('',(-1.00000000000000,0.00000000000000,1.22464679914735E-16));
#402=AXIS2_PLACEMENT_3D('',#399,#400,#401);
#403=PLANE('',#402);
#404=ADVANCED_FACE('',(#398),#403,.T.);
#405=ORIENTED_EDGE('',*,*,#389,.T.);
#406=CARTESIAN_POINT('',(8.72941359852333,5.39476580141308,-0.250000000000000));
#407=VERTEX_POINT('',#406);
#408=CARTESIAN_POINT('',(8.72941359852333,5.39476580141308,-0.375000000000000));
#409=DIRECTION('',(1.22464679914735E-16,0.00000000000000,1.00000000000000));
#410=VECTOR('',#409,1.00000000000000);
#411=LINE('',#408,#410);
#412=EDGE_CURVE('',#376,#407,#411,.T.);
#413=ORIENTED_EDGE('',*,*,#412,.T.);
#414=CARTESIAN_POINT('',(8.72941359852333,-0.605234198586919,-0.250000000000000));
#415=VERTEX_POINT('',#414);
#416=CARTESIAN_POINT('',(8.72941359852333,2.39476580141308,-0.250000000000000));
#417=DIRECTION('',(0.00000000000000,1.00000000000000,0.00000000000000));
#418=VECTOR('',#417,1.00000000000000);
#419=LINE('',#416,#418);
#420=EDGE_CURVE('',#415,#407,#419,.T.);
#421=ORIENTED_EDGE('',*,*,#420,.F.);
#422=CARTESIAN_POINT('',(8.72941359852333,-0.605234198586919,-0.375000000000000));
#423=DIRECTION('',(-1.22464679914735E-16,0.00000000000000,-1.00000000000000));
#424=VECTOR('',#423,1.00000000000000);
#425=LINE('',#422,#424);
#426=EDGE_CURVE('',#415,#384,#425,.T.);
#427=ORIENTED_EDGE('',*,*,#426,.T.);
#428=EDGE_LOOP('',(#405,#413,#421,#427));
#429=FACE_OUTER_BOUND('',#428,.T.);
#430=CARTESIAN_POINT('',(8.72941359852333,2.39476580141308,-0.312500000000000));
#431=DIRECTION('',(1.00000000000000,0.00000000000000,-1.22464679914735E-16));
#432=DIRECTION('',(-1.22464679914735E-16,0.00000000000000,-1.00000000000000));
#433=AXIS2_PLACEMENT_3D('',#430,#431,#432);
#434=PLANE('',#433);
#435=ADVANCED_FACE('',(#429),#434,.T.);
#436=ORIENTED_EDGE('',*,*,#420,.T.);
#437=CARTESIAN_POINT('',(5.47941359852333,5.39476580141308,-0.250000000000000));
#438=VERTEX_POINT('',#437);
#439=CARTESIAN_POINT('',(8.72941359852333,5.39476580141308,-0.250000000000000));
#440=DIRECTION('',(-1.00000000000000,0.00000000000000,1.22464679914735E-16));
#441=VECTOR('',#440,1.00000000000000);
#442=LINE('',#439,#441);
#443=EDGE_CURVE('',#407,#438,#442,.T.);
#444=ORIENTED_EDGE('',*,*,#443,.T.);
#445=CARTESIAN_POINT('',(5.47941359852333,-0.605234198586919,-0.250000000000000));
#446=VERTEX_POINT('',#445);
#447=CARTESIAN_POINT('',(5.47941359852333,2.39476580141308,-0.250000000000000));
#448=DIRECTION('',(-0.00000000000000,-1.00000000000000,0.00000000000000));
#449=VECTOR('',#448,1.00000000000000);
#450=LINE('',#447,#449);
#451=EDGE_CURVE('',#438,#446,#450,.T.);
#452=ORIENTED_EDGE('',*,*,#451,.T.);
#453=CARTESIAN_POINT('',(8.72941359852333,-0.605234198586919,-0.250000000000000));
#454=DIRECTION('',(1.00000000000000,-0.00000000000000,-1.22464679914735E-16));
#455=VECTOR('',#454,1.00000000000000);
#456=LINE('',#453,#455);
#457=EDGE_CURVE('',#446,#415,#456,.T.);
#458=ORIENTED_EDGE('',*,*,#457,.T.);
#459=EDGE_LOOP('',(#436,#444,#452,#458));
#460=FACE_OUTER_BOUND('',#459,.T.);
#461=CARTESIAN_POINT('',(7.10441359852333,2.39476580141308,-0.250000000000000));
#462=DIRECTION('',(1.22464679914735E-16,0.00000000000000,1.00000000000000));
#463=DIRECTION('',(1.00000000000000,-0.00000000000000,-1.22464679914735E-16));
#464=AXIS2_PLACEMENT_3D('',#461,#462,#463);
#465=PLANE('',#464);
#466=ADVANCED_FACE('',(#460),#465,.T.);
#467=ORIENTED_EDGE('',*,*,#451,.F.);
#468=CARTESIAN_POINT('',(5.47941359852333,5.39476580141308,-0.375000000000000));
#469=VERTEX_POINT('',#468);
#470=CARTESIAN_POINT('',(5.47941359852333,5.39476580141308,-0.250000000000000));
#471=DIRECTION('',(-1.22464679914735E-16,0.00000000000000,-1.00000000000000));
#472=VECTOR('',#471,1.00000000000000);
#473=LINE('',#470,#472);
#474=EDGE_CURVE('',#438,#469,#473,.T.);
#475=ORIENTED_EDGE('',*,*,#474,.T.);
#476=CARTESIAN_POINT('',(5.47941359852333,-0.605234198586919,-0.375000000000000));
#477=VERTEX_POINT('',#476);
#478=CARTESIAN_POINT('',(5.47941359852333,2.39476580141308,-0.375000000000000));
#479=DIRECTION('',(-0.00000000000000,-1.00000000000000,0.00000000000000));
#480=VECTOR('',#479,1.00000000000000);
#481=LINE('',#478,#480);
#482=EDGE_CURVE('',#469,#477,#481,.T.);
#483=ORIENTED_EDGE('',*,*,#482,.T.);
#484=CARTESIAN_POINT('',(5.47941359852333,-0.605234198586919,-0.250000000000000));
#485=DIRECTION('',(1.22464679914735E-16,-0.00000000000000,1.00000000000000));
#486=VECTOR('',#485,1.00000000000000);
#487=LINE('',#484,#486);
#488=EDGE_CURVE('',#477,#446,#487,.T.);
#489=ORIENTED_EDGE('',*,*,#488,.T.);
#490=EDGE_LOOP('',(#467,#475,#483,#489));
#491=FACE_OUTER_BOUND('',#490,.T.);
#492=CARTESIAN_POINT('',(5.47941359852333,2.39476580141308,-0.312500000000000));
#493=DIRECTION('',(-1.00000000000000,0.00000000000000,1.22464679914735E-16));
#494=DIRECTION('',(1.22464679914735E-16,-0.00000000000000,1.00000000000000));
#495=AXIS2_PLACEMENT_3D('',#492,#493,#494);
#496=PLANE('',#495);
#497=ADVANCED_FACE('',(#491),#496,.T.);
#498=ORIENTED_EDGE('',*,*,#482,.F.);
#499=CARTESIAN_POINT('',(6.80441359852333,5.39476580141308,-0.375000000000000));
#500=DIRECTION('',(1.00000000000000,-0.00000000000000,-1.22464679914735E-16));
#501=VECTOR('',#500,1.00000000000000);
#502=LINE('',#499,#501);
#503=EDGE_CURVE('',#469,#151,#502,.T.);
#504=ORIENTED_EDGE('',*,*,#503,.T.);
#505=ORIENTED_EDGE('',*,*,#156,.F.);
#506=CARTESIAN_POINT('',(6.80441359852333,-0.605234198586919,-0.375000000000000));
#507=DIRECTION('',(-1.00000000000000,0.00000000000000,1.22464679914735E-16));
#508=VECTOR('',#507,1.00000000000000);
#509=LINE('',#506,#508);
#510=EDGE_CURVE('',#149,#477,#509,.T.);
#511=ORIENTED_EDGE('',*,*,#510,.T.);
#512=EDGE_LOOP('',(#498,#504,#505,#511));
#513=FACE_OUTER_BOUND('',#512,.T.);
#514=CARTESIAN_POINT('',(6.14191359852333,2.39476580141308,-0.375000000000000));
#515=DIRECTION('',(-1.22464679914735E-16,0.00000000000000,-1.00000000000000));
#516=DIRECTION('',(-1.00000000000000,0.00000000000000,1.22464679914735E-16));
#517=AXIS2_PLACEMENT_3D('',#514,#515,#516);
#518=PLANE('',#517);
#519=ADVANCED_FACE('',(#513),#518,.T.);
#520=ORIENTED_EDGE('',*,*,#195,.F.);
#521=ORIENTED_EDGE('',*,*,#164,.F.);
#522=ORIENTED_EDGE('',*,*,#503,.F.);
#523=ORIENTED_EDGE('',*,*,#474,.F.);
#524=ORIENTED_EDGE('',*,*,#443,.F.);
#525=ORIENTED_EDGE('',*,*,#412,.F.);
#526=ORIENTED_EDGE('',*,*,#381,.F.);
#527=ORIENTED_EDGE('',*,*,#350,.F.);
#528=ORIENTED_EDGE('',*,*,#319,.F.);
#529=ORIENTED_EDGE('',*,*,#288,.F.);
#530=ORIENTED_EDGE('',*,*,#257,.F.);
#531=ORIENTED_EDGE('',*,*,#226,.F.);
#532=EDGE_LOOP('',(#520,#521,#522,#523,#524,#525,#526,#527,#528,#529,#530,#531));
#533=FACE_OUTER_BOUND('',#532,.T.);
#534=ORIENTED_EDGE('',*,*,#71,.F.);
#535=ORIENTED_EDGE('',*,*,#40,.F.);
#536=ORIENTED_EDGE('',*,*,#131,.F.);
#537=ORIENTED_EDGE('',*,*,#102,.F.);
#538=EDGE_LOOP('',(#534,#535,#536,#537));
#539=FACE_BOUND('',#538,.T.);
#540=CARTESIAN_POINT('',(7.03872734852333,5.39476580141308,-0.625000000000000));
#541=DIRECTION('',(0.00000000000000,1.00000000000000,0.00000000000000));
#542=DIRECTION('',(1.00000000000000,0.00000000000000,-1.22464679914735E-16));
#543=AXIS2_PLACEMENT_3D('',#540,#541,#542);
#544=PLANE('',#543);
#545=ADVANCED_FACE('',(#533,#539),#544,.T.);
#546=ORIENTED_EDGE('',*,*,#457,.F.);
#547=ORIENTED_EDGE('',*,*,#488,.F.);
#548=ORIENTED_EDGE('',*,*,#510,.F.);
#549=ORIENTED_EDGE('',*,*,#178,.F.);
#550=ORIENTED_EDGE('',*,*,#209,.F.);
#551=ORIENTED_EDGE('',*,*,#240,.F.);
#552=ORIENTED_EDGE('',*,*,#271,.F.);
#553=ORIENTED_EDGE('',*,*,#302,.F.);
#554=ORIENTED_EDGE('',*,*,#333,.F.);
#555=ORIENTED_EDGE('',*,*,#364,.F.);
#556=ORIENTED_EDGE('',*,*,#395,.F.);
#557=ORIENTED_EDGE('',*,*,#426,.F.);
#558=EDGE_LOOP('',(#546,#547,#548,#549,#550,#551,#552,#553,#554,#555,#556,#557));
#559=FACE_OUTER_BOUND('',#558,.T.);
#560=ORIENTED_EDGE('',*,*,#85,.F.);
#561=ORIENTED_EDGE('',*,*,#116,.F.);
#562=ORIENTED_EDGE('',*,*,#138,.F.);
#563=ORIENTED_EDGE('',*,*,#54,.F.);
#564=EDGE_LOOP('',(#560,#561,#562,#563));
#565=FACE_BOUND('',#564,.T.);
#566=CARTESIAN_POINT('',(7.03872734852333,-0.605234198586919,-0.625000000000000));
#567=DIRECTION('',(0.00000000000000,1.00000000000000,0.00000000000000));
#568=DIRECTION('',(1.00000000000000,0.00000000000000,-1.22464679914735E-16));
#569=AXIS2_PLACEMENT_3D('',#566,#567,#568);
#570=PLANE('',#569);
#571=ADVANCED_FACE('',(#559,#565),#570,.F.);
#572=CLOSED_SHELL('',(#63,#94,#125,#147,#187,#218,#249,#280,#311,#342,#373,#404,#435,#466,#497,#519,#545,#571));
#573=MANIFOLD_SOLID_BREP('',#572);
#574=COLOUR_RGB('',1.00000000000000,0.00000000000000,0.00000000000000);
#575=FILL_AREA_STYLE_COLOUR('',#574);
#576=FILL_AREA_STYLE('',(#575));
#577=SURFACE_STYLE_FILL_AREA(#576);
#578=SURFACE_SIDE_STYLE('',(#577));
#579=SURFACE_STYLE_USAGE(.BOTH.,#578);
#580=PRESENTATION_STYLE_ASSIGNMENT((#579));
#581=STYLED_ITEM('',(#580),#573);
#582=ADVANCED_BREP_SHAPE_REPRESENTATION('',(#573,#23),#18);
#583=PRODUCT('','','',(#2));
#584=PRODUCT_DEFINITION_FORMATION_WITH_SPECIFIED_SOURCE('','',#583,.NOT_KNOWN.);
#585=PRODUCT_CATEGORY('part','');
#586=PRODUCT_RELATED_PRODUCT_CATEGORY('detail','',(#583));
#587=PRODUCT_CATEGORY_RELATIONSHIP('','',#585,#586);
#588=PRODUCT_DEFINITION('','',#584,#1);
#589=PRODUCT_DEFINITION_SHAPE('NONE','NONE',#588);
#590=SHAPE_DEFINITION_REPRESENTATION(#589,#582);
#591=PRESENTATION_LAYER_ASSIGNMENT('1','Unnamed [1]',(#573));
ENDSEC;
END-ISO-10303-21;
