ISO-10303-21;
HEADER;
FILE_DESCRIPTION(('', 'CAx-IF Rec.Pracs.---Representation and Presentation of Product Manufacturing Information (PMI)---4.1---2024-06-20'),'2;1');
FILE_NAME('SG2715.STP', '2025-04-28T15:22:06',(''), (''), 'Kubotek Kosmos 3D Framework Version 6.0.15074.15074', 'Kubotek Kosmos 3D Framework', '');
FILE_SCHEMA(('AP242_MANAGED_MODEL_BASED_3D_ENGINEERING_MIM_LF  { 1 0 10303 442 4 1 4 }'));
ENDSEC;
DATA;
#1=PRODUCT_DEFINITION_CONTEXT('',#4,'design');
#2=PRODUCT_CONTEXT('',#4,'mechanical');
#3=APPLICATION_PROTOCOL_DEFINITION('international standard','ap242_managed_model_based_3d_engineering',2011,#4);
#4=APPLICATION_CONTEXT('managed model based 3d engineering');
#10=DIMENSIONAL_EXPONENTS(1.0,0.0,0.0,0.0,0.0,0.0,0.0);
#11=DIMENSIONAL_EXPONENTS(0.0,0.0,0.0,0.0,0.0,0.0,0.0);
#12=(LENGTH_UNIT()NAMED_UNIT(*)SI_UNIT(.MILLI.,.METRE.));
#13=(NAMED_UNIT(*)PLANE_ANGLE_UNIT()SI_UNIT($,.RADIAN.));
#14=(NAMED_UNIT(*)SI_UNIT($,.STERADIAN.)SOLID_ANGLE_UNIT());
#15=LENGTH_MEASURE_WITH_UNIT(LENGTH_MEASURE(25.4),#12);
#16=(CONVERSION_BASED_UNIT('INCH',#15)LENGTH_UNIT()NAMED_UNIT(#10));
#17=UNCERTAINTY_MEASURE_WITH_UNIT(LENGTH_MEASURE(1.0E-006),#16,'','');
#18=(GEOMETRIC_REPRESENTATION_CONTEXT(3)GLOBAL_UNCERTAINTY_ASSIGNED_CONTEXT((#17))GLOBAL_UNIT_ASSIGNED_CONTEXT((#16,#13,#14))REPRESENTATION_CONTEXT('NONE','WORKSPACE'));
#20=CARTESIAN_POINT('',(0.0,0.0,0.0));
#21=DIRECTION('',(0.0,0.0,1.0));
#22=DIRECTION('',(1.0,0.0,0.0));
#23=AXIS2_PLACEMENT_3D('',#20,#21,#22);
#24=PRODUCT('','','',(#2));
#25=PRODUCT_DEFINITION_FORMATION_WITH_SPECIFIED_SOURCE('','',#24,.NOT_KNOWN.);
#26=PRODUCT_CATEGORY('Part','');
#27=PRODUCT_RELATED_PRODUCT_CATEGORY('detail','',(#24));
#28=PRODUCT_CATEGORY_RELATIONSHIP('','',#26,#27);
#29=PRODUCT_DEFINITION('','',#25,#1);
#30=PRODUCT_DEFINITION_SHAPE('NONE','NONE',#29);
#31=CARTESIAN_POINT('',(-1.43750000000,5.46875000000,0.906250000000));
#32=VERTEX_POINT('',#31);
#33=CARTESIAN_POINT('',(-1.43750000000,5.46875000000,0.531250000000));
#34=VERTEX_POINT('',#33);
#35=CARTESIAN_POINT('',(-1.43750000000,5.46875000000,0.718750000000));
#36=DIRECTION('',(-0.0,-1.0,0.0));
#37=DIRECTION('',(0.0,0.0,1.0));
#38=AXIS2_PLACEMENT_3D('',#35,#36,#37);
#39=CIRCLE('',#38,0.1875);
#40=EDGE_CURVE('',#32,#34,#39,.T.);
#41=ORIENTED_EDGE('',*,*,#40,.T.);
#42=CARTESIAN_POINT('',(-1.43750000000,-0.531250000000,0.531250000000));
#43=VERTEX_POINT('',#42);
#44=CARTESIAN_POINT('',(-1.43750000000,-0.531250000000,0.531250000000));
#45=DIRECTION('',(0.0,1.0,-0.0));
#46=VECTOR('',#45,1.0);
#47=LINE('',#44,#46);
#48=EDGE_CURVE('',#43,#34,#47,.T.);
#49=ORIENTED_EDGE('',*,*,#48,.F.);
#50=CARTESIAN_POINT('',(-1.43750000000,-0.531250000000,0.906250000000));
#51=VERTEX_POINT('',#50);
#52=CARTESIAN_POINT('',(-1.43750000000,-0.531250000000,0.718750000000));
#53=DIRECTION('',(-0.0,-1.0,0.0));
#54=DIRECTION('',(0.0,0.0,1.0));
#55=AXIS2_PLACEMENT_3D('',#52,#53,#54);
#56=CIRCLE('',#55,0.1875);
#57=EDGE_CURVE('',#51,#43,#56,.T.);
#58=ORIENTED_EDGE('',*,*,#57,.F.);
#59=CARTESIAN_POINT('',(-1.43750000000,-0.531250000000,0.906250000000));
#60=DIRECTION('',(0.0,1.0,-0.0));
#61=VECTOR('',#60,1.0);
#62=LINE('',#59,#61);
#63=EDGE_CURVE('',#51,#32,#62,.T.);
#64=ORIENTED_EDGE('',*,*,#63,.T.);
#65=EDGE_LOOP('',(#41,#49,#58,#64));
#66=FACE_OUTER_BOUND('',#65,.T.);
#67=CARTESIAN_POINT('',(-1.43750000000,-0.531250000000,0.718750000000));
#68=DIRECTION('',(0.0,1.0,-0.0));
#69=DIRECTION('',(1.0,0.0,0.0));
#70=AXIS2_PLACEMENT_3D('',#67,#68,#69);
#71=CYLINDRICAL_SURFACE('',#70,0.1875);
#72=ADVANCED_FACE('',(#66),#71,.T.);
#73=CARTESIAN_POINT('',(0.0,5.46875000000,0.531250000000));
#74=VERTEX_POINT('',#73);
#75=CARTESIAN_POINT('',(0.0,5.46875000000,0.531250000000));
#76=DIRECTION('',(1.0,0.0,0.0));
#77=VECTOR('',#76,1.0);
#78=LINE('',#75,#77);
#79=EDGE_CURVE('',#34,#74,#78,.T.);
#80=ORIENTED_EDGE('',*,*,#79,.T.);
#81=CARTESIAN_POINT('',(0.0,-0.531250000000,0.531250000000));
#82=VERTEX_POINT('',#81);
#83=CARTESIAN_POINT('',(0.0,-0.531250000000,0.531250000000));
#84=DIRECTION('',(0.0,1.0,-0.0));
#85=VECTOR('',#84,1.0);
#86=LINE('',#83,#85);
#87=EDGE_CURVE('',#82,#74,#86,.T.);
#88=ORIENTED_EDGE('',*,*,#87,.F.);
#89=CARTESIAN_POINT('',(0.0,-0.531250000000,0.531250000000));
#90=DIRECTION('',(-1.0,0.0,0.0));
#91=VECTOR('',#90,1.0);
#92=LINE('',#89,#91);
#93=EDGE_CURVE('',#82,#43,#92,.T.);
#94=ORIENTED_EDGE('',*,*,#93,.T.);
#95=ORIENTED_EDGE('',*,*,#48,.T.);
#96=EDGE_LOOP('',(#80,#88,#94,#95));
#97=FACE_OUTER_BOUND('',#96,.T.);
#98=CARTESIAN_POINT('',(-0.718750000000,-0.531250000000,0.531250000000));
#99=DIRECTION('',(-0.0,-0.0,-1.0));
#100=DIRECTION('',(-1.0,0.0,0.0));
#101=AXIS2_PLACEMENT_3D('',#98,#99,#100);
#102=PLANE('',#101);
#103=ADVANCED_FACE('',(#97),#102,.T.);
#104=CARTESIAN_POINT('',(-0.0,5.46875000000,-0.531250000000));
#105=VERTEX_POINT('',#104);
#106=CARTESIAN_POINT('',(-0.0,5.46875000000,-0.531250000000));
#107=DIRECTION('',(-0.0,-0.0,-1.0));
#108=VECTOR('',#107,1.0);
#109=LINE('',#106,#108);
#110=EDGE_CURVE('',#74,#105,#109,.T.);
#111=ORIENTED_EDGE('',*,*,#110,.T.);
#112=CARTESIAN_POINT('',(-0.0,-0.531250000000,-0.531250000000));
#113=VERTEX_POINT('',#112);
#114=CARTESIAN_POINT('',(-0.0,-0.531250000000,-0.531250000000));
#115=DIRECTION('',(0.0,1.0,-0.0));
#116=VECTOR('',#115,1.0);
#117=LINE('',#114,#116);
#118=EDGE_CURVE('',#113,#105,#117,.T.);
#119=ORIENTED_EDGE('',*,*,#118,.F.);
#120=CARTESIAN_POINT('',(-0.0,-0.531250000000,-0.531250000000));
#121=DIRECTION('',(0.0,0.0,1.0));
#122=VECTOR('',#121,1.0);
#123=LINE('',#120,#122);
#124=EDGE_CURVE('',#113,#82,#123,.T.);
#125=ORIENTED_EDGE('',*,*,#124,.T.);
#126=ORIENTED_EDGE('',*,*,#87,.T.);
#127=EDGE_LOOP('',(#111,#119,#125,#126));
#128=FACE_OUTER_BOUND('',#127,.T.);
#129=CARTESIAN_POINT('',(-0.0,-0.531250000000,0.0));
#130=DIRECTION('',(-1.0,0.0,0.0));
#131=DIRECTION('',(0.0,0.0,1.0));
#132=AXIS2_PLACEMENT_3D('',#129,#130,#131);
#133=PLANE('',#132);
#134=ADVANCED_FACE('',(#128),#133,.T.);
#135=CARTESIAN_POINT('',(0.375000000000,5.46875000000,-0.531250000000));
#136=VERTEX_POINT('',#135);
#137=CARTESIAN_POINT('',(0.187500000000,5.46875000000,-0.531250000000));
#138=DIRECTION('',(-0.0,-1.0,0.0));
#139=DIRECTION('',(0.0,0.0,1.0));
#140=AXIS2_PLACEMENT_3D('',#137,#138,#139);
#141=CIRCLE('',#140,0.1875);
#142=EDGE_CURVE('',#105,#136,#141,.T.);
#143=ORIENTED_EDGE('',*,*,#142,.T.);
#144=CARTESIAN_POINT('',(0.375000000000,-0.531250000000,-0.531250000000));
#145=VERTEX_POINT('',#144);
#146=CARTESIAN_POINT('',(0.375000000000,-0.531250000000,-0.531250000000));
#147=DIRECTION('',(0.0,1.0,-0.0));
#148=VECTOR('',#147,1.0);
#149=LINE('',#146,#148);
#150=EDGE_CURVE('',#145,#136,#149,.T.);
#151=ORIENTED_EDGE('',*,*,#150,.F.);
#152=CARTESIAN_POINT('',(0.187500000000,-0.531250000000,-0.531250000000));
#153=DIRECTION('',(-0.0,-1.0,0.0));
#154=DIRECTION('',(0.0,0.0,1.0));
#155=AXIS2_PLACEMENT_3D('',#152,#153,#154);
#156=CIRCLE('',#155,0.1875);
#157=EDGE_CURVE('',#113,#145,#156,.T.);
#158=ORIENTED_EDGE('',*,*,#157,.F.);
#159=ORIENTED_EDGE('',*,*,#118,.T.);
#160=EDGE_LOOP('',(#143,#151,#158,#159));
#161=FACE_OUTER_BOUND('',#160,.T.);
#162=CARTESIAN_POINT('',(0.187500000000,-0.531250000000,-0.531250000000));
#163=DIRECTION('',(0.0,1.0,-0.0));
#164=DIRECTION('',(0.0,0.0,1.0));
#165=AXIS2_PLACEMENT_3D('',#162,#163,#164);
#166=CYLINDRICAL_SURFACE('',#165,0.1875);
#167=ADVANCED_FACE('',(#161),#166,.T.);
#168=CARTESIAN_POINT('',(0.375000000000,5.46875000000,0.531250000000));
#169=VERTEX_POINT('',#168);
#170=CARTESIAN_POINT('',(0.375000000000,5.46875000000,-0.531250000000));
#171=DIRECTION('',(0.0,0.0,1.0));
#172=VECTOR('',#171,1.0);
#173=LINE('',#170,#172);
#174=EDGE_CURVE('',#136,#169,#173,.T.);
#175=ORIENTED_EDGE('',*,*,#174,.T.);
#176=CARTESIAN_POINT('',(0.375000000000,-0.531250000000,0.531250000000));
#177=VERTEX_POINT('',#176);
#178=CARTESIAN_POINT('',(0.375000000000,-0.531250000000,0.531250000000));
#179=DIRECTION('',(0.0,1.0,-0.0));
#180=VECTOR('',#179,1.0);
#181=LINE('',#178,#180);
#182=EDGE_CURVE('',#177,#169,#181,.T.);
#183=ORIENTED_EDGE('',*,*,#182,.F.);
#184=CARTESIAN_POINT('',(0.375000000000,-0.531250000000,-0.531250000000));
#185=DIRECTION('',(0.0,0.0,1.0));
#186=VECTOR('',#185,1.0);
#187=LINE('',#184,#186);
#188=EDGE_CURVE('',#145,#177,#187,.T.);
#189=ORIENTED_EDGE('',*,*,#188,.F.);
#190=ORIENTED_EDGE('',*,*,#150,.T.);
#191=EDGE_LOOP('',(#175,#183,#189,#190));
#192=FACE_OUTER_BOUND('',#191,.T.);
#193=CARTESIAN_POINT('',(0.375000000000,-0.531250000000,-0.0));
#194=DIRECTION('',(1.0,-0.0,-0.0));
#195=DIRECTION('',(-0.0,-0.0,-1.0));
#196=AXIS2_PLACEMENT_3D('',#193,#194,#195);
#197=PLANE('',#196);
#198=ADVANCED_FACE('',(#192),#197,.T.);
#199=CARTESIAN_POINT('',(0.0,5.46875000000,0.906250000000));
#200=VERTEX_POINT('',#199);
#201=CARTESIAN_POINT('',(0.0,5.46875000000,0.531250000000));
#202=DIRECTION('',(-0.0,-1.0,0.0));
#203=DIRECTION('',(0.0,0.0,1.0));
#204=AXIS2_PLACEMENT_3D('',#201,#202,#203);
#205=CIRCLE('',#204,0.375);
#206=EDGE_CURVE('',#169,#200,#205,.T.);
#207=ORIENTED_EDGE('',*,*,#206,.T.);
#208=CARTESIAN_POINT('',(0.0,-0.531250000000,0.906250000000));
#209=VERTEX_POINT('',#208);
#210=CARTESIAN_POINT('',(0.0,-0.531250000000,0.906250000000));
#211=DIRECTION('',(0.0,1.0,-0.0));
#212=VECTOR('',#211,1.0);
#213=LINE('',#210,#212);
#214=EDGE_CURVE('',#209,#200,#213,.T.);
#215=ORIENTED_EDGE('',*,*,#214,.F.);
#216=CARTESIAN_POINT('',(0.0,-0.531250000000,0.531250000000));
#217=DIRECTION('',(-0.0,-1.0,0.0));
#218=DIRECTION('',(0.0,0.0,1.0));
#219=AXIS2_PLACEMENT_3D('',#216,#217,#218);
#220=CIRCLE('',#219,0.375);
#221=EDGE_CURVE('',#177,#209,#220,.T.);
#222=ORIENTED_EDGE('',*,*,#221,.F.);
#223=ORIENTED_EDGE('',*,*,#182,.T.);
#224=EDGE_LOOP('',(#207,#215,#222,#223));
#225=FACE_OUTER_BOUND('',#224,.T.);
#226=CARTESIAN_POINT('',(0.0,-0.531250000000,0.531250000000));
#227=DIRECTION('',(0.0,1.0,-0.0));
#228=DIRECTION('',(-0.707106781187,0.0,-0.707106781187));
#229=AXIS2_PLACEMENT_3D('',#226,#227,#228);
#230=CYLINDRICAL_SURFACE('',#229,0.375);
#231=ADVANCED_FACE('',(#225),#230,.T.);
#232=CARTESIAN_POINT('',(0.0,5.46875000000,0.906250000000));
#233=DIRECTION('',(-1.0,0.0,0.0));
#234=VECTOR('',#233,1.0);
#235=LINE('',#232,#234);
#236=EDGE_CURVE('',#200,#32,#235,.T.);
#237=ORIENTED_EDGE('',*,*,#236,.T.);
#238=ORIENTED_EDGE('',*,*,#63,.F.);
#239=CARTESIAN_POINT('',(0.0,-0.531250000000,0.906250000000));
#240=DIRECTION('',(-1.0,0.0,0.0));
#241=VECTOR('',#240,1.0);
#242=LINE('',#239,#241);
#243=EDGE_CURVE('',#209,#51,#242,.T.);
#244=ORIENTED_EDGE('',*,*,#243,.F.);
#245=ORIENTED_EDGE('',*,*,#214,.T.);
#246=EDGE_LOOP('',(#237,#238,#244,#245));
#247=FACE_OUTER_BOUND('',#246,.T.);
#248=CARTESIAN_POINT('',(-0.718750000000,-0.531250000000,0.906250000000));
#249=DIRECTION('',(0.0,0.0,1.0));
#250=DIRECTION('',(1.0,-0.0,-0.0));
#251=AXIS2_PLACEMENT_3D('',#248,#249,#250);
#252=PLANE('',#251);
#253=ADVANCED_FACE('',(#247),#252,.T.);
#254=ORIENTED_EDGE('',*,*,#40,.F.);
#255=ORIENTED_EDGE('',*,*,#236,.F.);
#256=ORIENTED_EDGE('',*,*,#206,.F.);
#257=ORIENTED_EDGE('',*,*,#174,.F.);
#258=ORIENTED_EDGE('',*,*,#142,.F.);
#259=ORIENTED_EDGE('',*,*,#110,.F.);
#260=ORIENTED_EDGE('',*,*,#79,.F.);
#261=EDGE_LOOP('',(#254,#255,#256,#257,#258,#259,#260));
#262=FACE_OUTER_BOUND('',#261,.T.);
#263=CARTESIAN_POINT('',(-0.448967187500,5.46875000000,0.906250000000));
#264=DIRECTION('',(0.0,-1.0,0.0));
#265=DIRECTION('',(1.0,0.0,0.0));
#266=AXIS2_PLACEMENT_3D('',#263,#264,#265);
#267=PLANE('',#266);
#268=ADVANCED_FACE('',(#262),#267,.F.);
#269=ORIENTED_EDGE('',*,*,#243,.T.);
#270=ORIENTED_EDGE('',*,*,#57,.T.);
#271=ORIENTED_EDGE('',*,*,#93,.F.);
#272=ORIENTED_EDGE('',*,*,#124,.F.);
#273=ORIENTED_EDGE('',*,*,#157,.T.);
#274=ORIENTED_EDGE('',*,*,#188,.T.);
#275=ORIENTED_EDGE('',*,*,#221,.T.);
#276=EDGE_LOOP('',(#269,#270,#271,#272,#273,#274,#275));
#277=FACE_OUTER_BOUND('',#276,.T.);
#278=CARTESIAN_POINT('',(-0.448967187500,-0.531250000000,0.906250000000));
#279=DIRECTION('',(0.0,-1.0,0.0));
#280=DIRECTION('',(1.0,0.0,0.0));
#281=AXIS2_PLACEMENT_3D('',#278,#279,#280);
#282=PLANE('',#281);
#283=ADVANCED_FACE('',(#277),#282,.T.);
#284=CLOSED_SHELL('',(#72,#103,#134,#167,#198,#231,#253,#268,#283));
#285=MANIFOLD_SOLID_BREP('',#284);
#286=COLOUR_RGB('',1.0,0.0,0.0);
#287=FILL_AREA_STYLE_COLOUR('',#286);
#288=FILL_AREA_STYLE('',(#287));
#289=SURFACE_STYLE_FILL_AREA(#288);
#290=SURFACE_SIDE_STYLE('',(#289));
#291=SURFACE_STYLE_USAGE(.BOTH.,#290);
#292=PRESENTATION_STYLE_ASSIGNMENT((#291));
#293=STYLED_ITEM('',(#292),#285);
#294=ADVANCED_BREP_SHAPE_REPRESENTATION('',(#285,#23),#18);
#295=SHAPE_DEFINITION_REPRESENTATION(#30,#294);
#296=DERIVED_UNIT_ELEMENT(#12,3.0);
#297=VOLUME_UNIT((#296));
#298=NAME_ATTRIBUTE('CUBIC MILLIMETRE',#297);
#299=DERIVED_UNIT_ELEMENT(#12,2.0);
#300=AREA_UNIT((#299));
#301=NAME_ATTRIBUTE('SQUARE MILLIMETRE',#300);
#302=SHAPE_ASPECT('#302','solid #285',#30,.F.);
#303=GEOMETRIC_ITEM_SPECIFIC_USAGE('Shape for Validation Properties','',#302,#294,#285);
#304=MEASURE_REPRESENTATION_ITEM('volume measure',VOLUME_MEASURE(6.94462215574798),#297);
#305=REPRESENTATION('volume',(#304),#18);
#306=PROPERTY_DEFINITION('volume of #285','geometric validation property',#302);
#307=PROPERTY_DEFINITION_REPRESENTATION(#306,#305);
#308=MEASURE_REPRESENTATION_ITEM('surface area measure',AREA_MEASURE(42.9060673975534),#300);
#309=REPRESENTATION('surface area',(#308),#18);
#310=PROPERTY_DEFINITION('area of #285','geometric validation property',#302);
#311=PROPERTY_DEFINITION_REPRESENTATION(#310,#309);
#312=CARTESIAN_POINT('centre point',(-0.318249550881,2.46875000000,0.405462708849));
#313=REPRESENTATION('centroid',(#312),#18);
#314=PROPERTY_DEFINITION('centroid of #285','geometric validation property',#302);
#315=PROPERTY_DEFINITION_REPRESENTATION(#314,#313);
#316=CARTESIAN_POINT('bounding box corner point',(-1.62500000000,-0.531250000000,-0.718750000000));
#317=CARTESIAN_POINT('bounding box corner point',(0.375000000000,5.46875000000,0.906250000000));
#318=REPRESENTATION('bounding box',(#316,#317),#18);
#319=PROPERTY_DEFINITION('bounding box of #285','geometric validation property',#302);
#320=PROPERTY_DEFINITION_REPRESENTATION(#319,#318);
#321=PRESENTATION_LAYER_ASSIGNMENT('1','Unnamed [1]',(#285));
ENDSEC;
END-ISO-10303-21;
