ISO-10303-21;
HEADER;
FILE_DESCRIPTION(('', 'CAx-IF Rec.Pracs.---Representation and Presentation of Product Manufacturing Information (PMI)---4.0---2014-10-13'),'2;1');
FILE_NAME('SG2692.STP', '2024-11-05T14:00:02',(''), (''), 'Kubotek Kosmos 3D Framework Version 6.0.14858.14858', 'Kubotek Kosmos 3D Framework', '');
FILE_SCHEMA(('AP242_MANAGED_MODEL_BASED_3D_ENGINEERING_MIM_LF  { 1 0 10303 442 4 1 4 }'));
ENDSEC;
DATA;
#1=PRODUCT_DEFINITION_CONTEXT('',#4,'design');
#2=PRODUCT_CONTEXT('',#4,'mechanical');
#3=APPLICATION_PROTOCOL_DEFINITION('international standard','ap242_managed_model_based_3d_engineering',2011,#4);
#4=APPLICATION_CONTEXT('managed model based 3d engineering');
#10=DIMENSIONAL_EXPONENTS(1.0,0.0,0.0,0.0,0.0,0.0,0.0);
#11=DIMENSIONAL_EXPONENTS(0.0,0.0,0.0,0.0,0.0,0.0,0.0);
#12=(LENGTH_UNIT()NAMED_UNIT(*)SI_UNIT(.MILLI.,.METRE.));
#13=(NAMED_UNIT(*)PLANE_ANGLE_UNIT()SI_UNIT($,.RADIAN.));
#14=(NAMED_UNIT(*)SI_UNIT($,.STERADIAN.)SOLID_ANGLE_UNIT());
#15=LENGTH_MEASURE_WITH_UNIT(LENGTH_MEASURE(25.4),#12);
#16=(CONVERSION_BASED_UNIT('INCH',#15)LENGTH_UNIT()NAMED_UNIT(#10));
#17=UNCERTAINTY_MEASURE_WITH_UNIT(LENGTH_MEASURE(1.0E-006),#16,'','');
#18=(GEOMETRIC_REPRESENTATION_CONTEXT(3)GLOBAL_UNCERTAINTY_ASSIGNED_CONTEXT((#17))GLOBAL_UNIT_ASSIGNED_CONTEXT((#16,#13,#14))REPRESENTATION_CONTEXT('NONE','WORKSPACE'));
#20=CARTESIAN_POINT('',(0.0,0.0,0.0));
#21=DIRECTION('',(0.0,0.0,1.0));
#22=DIRECTION('',(1.0,0.0,0.0));
#23=AXIS2_PLACEMENT_3D('',#20,#21,#22);
#24=PRODUCT('','','',(#2));
#25=PRODUCT_DEFINITION_FORMATION_WITH_SPECIFIED_SOURCE('','',#24,.NOT_KNOWN.);
#26=PRODUCT_CATEGORY('Part','');
#27=PRODUCT_RELATED_PRODUCT_CATEGORY('detail','',(#24));
#28=PRODUCT_CATEGORY_RELATIONSHIP('','',#26,#27);
#29=PRODUCT_DEFINITION('','',#25,#1);
#30=PRODUCT_DEFINITION_SHAPE('NONE','NONE',#29);
#31=CARTESIAN_POINT('',(0.0500000000000,5.51250000000,0.0500000000000));
#32=VERTEX_POINT('',#31);
#33=CARTESIAN_POINT('',(0.0500000000000,5.51250000000,0.925000000000));
#34=VERTEX_POINT('',#33);
#35=CARTESIAN_POINT('',(0.0500000000000,5.51250000000,0.925000000000));
#36=DIRECTION('',(0.0,0.0,1.0));
#37=VECTOR('',#36,1.0);
#38=LINE('',#35,#37);
#39=EDGE_CURVE('',#32,#34,#38,.T.);
#40=ORIENTED_EDGE('',*,*,#39,.T.);
#41=CARTESIAN_POINT('',(0.0500000000000,-0.487500000000,0.925000000000));
#42=VERTEX_POINT('',#41);
#43=CARTESIAN_POINT('',(0.0500000000000,-0.487500000000,0.925000000000));
#44=DIRECTION('',(0.0,1.0,-0.0));
#45=VECTOR('',#44,1.0);
#46=LINE('',#43,#45);
#47=EDGE_CURVE('',#42,#34,#46,.T.);
#48=ORIENTED_EDGE('',*,*,#47,.F.);
#49=CARTESIAN_POINT('',(0.0500000000000,-0.487500000000,0.0500000000000));
#50=VERTEX_POINT('',#49);
#51=CARTESIAN_POINT('',(0.0500000000000,-0.487500000000,0.925000000000));
#52=DIRECTION('',(0.0,-0.0,-1.0));
#53=VECTOR('',#52,1.0);
#54=LINE('',#51,#53);
#55=EDGE_CURVE('',#42,#50,#54,.T.);
#56=ORIENTED_EDGE('',*,*,#55,.T.);
#57=CARTESIAN_POINT('',(0.0500000000000,-0.487500000000,0.0500000000000));
#58=DIRECTION('',(0.0,1.0,-0.0));
#59=VECTOR('',#58,1.0);
#60=LINE('',#57,#59);
#61=EDGE_CURVE('',#50,#32,#60,.T.);
#62=ORIENTED_EDGE('',*,*,#61,.T.);
#63=EDGE_LOOP('',(#40,#48,#56,#62));
#64=FACE_OUTER_BOUND('',#63,.T.);
#65=CARTESIAN_POINT('',(0.0500000000000,-0.487500000000,0.487500000000));
#66=DIRECTION('',(1.0,0.0,0.0));
#67=DIRECTION('',(0.0,-0.0,-1.0));
#68=AXIS2_PLACEMENT_3D('',#65,#66,#67);
#69=PLANE('',#68);
#70=ADVANCED_FACE('',(#64),#69,.T.);
#71=CARTESIAN_POINT('',(0.0,5.51250000000,0.925000000000));
#72=VERTEX_POINT('',#71);
#73=CARTESIAN_POINT('',(0.0250000000000,5.51250000000,0.925000000000));
#74=DIRECTION('',(0.0,-1.0,0.0));
#75=DIRECTION('',(-0.0,-0.0,-1.0));
#76=AXIS2_PLACEMENT_3D('',#73,#74,#75);
#77=CIRCLE('',#76,0.025);
#78=EDGE_CURVE('',#34,#72,#77,.T.);
#79=ORIENTED_EDGE('',*,*,#78,.T.);
#80=CARTESIAN_POINT('',(0.0,-0.487500000000,0.925000000000));
#81=VERTEX_POINT('',#80);
#82=CARTESIAN_POINT('',(0.0,-0.487500000000,0.925000000000));
#83=DIRECTION('',(0.0,1.0,-0.0));
#84=VECTOR('',#83,1.0);
#85=LINE('',#82,#84);
#86=EDGE_CURVE('',#81,#72,#85,.T.);
#87=ORIENTED_EDGE('',*,*,#86,.F.);
#88=CARTESIAN_POINT('',(0.0250000000000,-0.487500000000,0.925000000000));
#89=DIRECTION('',(0.0,-1.0,0.0));
#90=DIRECTION('',(-0.0,-0.0,-1.0));
#91=AXIS2_PLACEMENT_3D('',#88,#89,#90);
#92=CIRCLE('',#91,0.025);
#93=EDGE_CURVE('',#42,#81,#92,.T.);
#94=ORIENTED_EDGE('',*,*,#93,.F.);
#95=ORIENTED_EDGE('',*,*,#47,.T.);
#96=EDGE_LOOP('',(#79,#87,#94,#95));
#97=FACE_OUTER_BOUND('',#96,.T.);
#98=CARTESIAN_POINT('',(0.0250000000000,-0.487500000000,0.925000000000));
#99=DIRECTION('',(0.0,1.0,-0.0));
#100=DIRECTION('',(-0.0,-0.0,-1.0));
#101=AXIS2_PLACEMENT_3D('',#98,#99,#100);
#102=CYLINDRICAL_SURFACE('',#101,0.025);
#103=ADVANCED_FACE('',(#97),#102,.T.);
#104=CARTESIAN_POINT('',(-0.0,5.51250000000,0.0500000000000));
#105=VERTEX_POINT('',#104);
#106=CARTESIAN_POINT('',(0.0,5.51250000000,0.925000000000));
#107=DIRECTION('',(0.0,-0.0,-1.0));
#108=VECTOR('',#107,1.0);
#109=LINE('',#106,#108);
#110=EDGE_CURVE('',#72,#105,#109,.T.);
#111=ORIENTED_EDGE('',*,*,#110,.T.);
#112=CARTESIAN_POINT('',(-0.0,-0.487500000000,0.0500000000000));
#113=VERTEX_POINT('',#112);
#114=CARTESIAN_POINT('',(-0.0,-0.487500000000,0.0500000000000));
#115=DIRECTION('',(0.0,1.0,-0.0));
#116=VECTOR('',#115,1.0);
#117=LINE('',#114,#116);
#118=EDGE_CURVE('',#113,#105,#117,.T.);
#119=ORIENTED_EDGE('',*,*,#118,.F.);
#120=CARTESIAN_POINT('',(0.0,-0.487500000000,0.925000000000));
#121=DIRECTION('',(0.0,-0.0,-1.0));
#122=VECTOR('',#121,1.0);
#123=LINE('',#120,#122);
#124=EDGE_CURVE('',#81,#113,#123,.T.);
#125=ORIENTED_EDGE('',*,*,#124,.F.);
#126=ORIENTED_EDGE('',*,*,#86,.T.);
#127=EDGE_LOOP('',(#111,#119,#125,#126));
#128=FACE_OUTER_BOUND('',#127,.T.);
#129=CARTESIAN_POINT('',(0.0,-0.487500000000,0.487500000000));
#130=DIRECTION('',(-1.0,0.0,-0.0));
#131=DIRECTION('',(-0.0,0.0,1.0));
#132=AXIS2_PLACEMENT_3D('',#129,#130,#131);
#133=PLANE('',#132);
#134=ADVANCED_FACE('',(#128),#133,.T.);
#135=CARTESIAN_POINT('',(0.0500000000000,5.51250000000,-0.0));
#136=VERTEX_POINT('',#135);
#137=CARTESIAN_POINT('',(0.0500000000000,5.51250000000,0.0500000000000));
#138=DIRECTION('',(0.0,-1.0,0.0));
#139=DIRECTION('',(1.0,0.0,0.0));
#140=AXIS2_PLACEMENT_3D('',#137,#138,#139);
#141=CIRCLE('',#140,0.05);
#142=EDGE_CURVE('',#105,#136,#141,.T.);
#143=ORIENTED_EDGE('',*,*,#142,.T.);
#144=CARTESIAN_POINT('',(0.0500000000000,-0.487500000000,0.0));
#145=VERTEX_POINT('',#144);
#146=CARTESIAN_POINT('',(0.0500000000000,-0.487500000000,0.0));
#147=DIRECTION('',(0.0,1.0,-0.0));
#148=VECTOR('',#147,1.0);
#149=LINE('',#146,#148);
#150=EDGE_CURVE('',#145,#136,#149,.T.);
#151=ORIENTED_EDGE('',*,*,#150,.F.);
#152=CARTESIAN_POINT('',(0.0500000000000,-0.487500000000,0.0500000000000));
#153=DIRECTION('',(0.0,1.0,-0.0));
#154=DIRECTION('',(1.0,0.0,0.0));
#155=AXIS2_PLACEMENT_3D('',#152,#153,#154);
#156=CIRCLE('',#155,0.05);
#157=EDGE_CURVE('',#145,#113,#156,.T.);
#158=ORIENTED_EDGE('',*,*,#157,.T.);
#159=ORIENTED_EDGE('',*,*,#118,.T.);
#160=EDGE_LOOP('',(#143,#151,#158,#159));
#161=FACE_OUTER_BOUND('',#160,.T.);
#162=CARTESIAN_POINT('',(0.0500000000000,-0.487500000000,0.0500000000000));
#163=DIRECTION('',(0.0,1.0,-0.0));
#164=DIRECTION('',(1.0,0.0,0.0));
#165=AXIS2_PLACEMENT_3D('',#162,#163,#164);
#166=CYLINDRICAL_SURFACE('',#165,0.05);
#167=ADVANCED_FACE('',(#161),#166,.T.);
#168=CARTESIAN_POINT('',(0.180000000000,5.51250000000,-0.0));
#169=VERTEX_POINT('',#168);
#170=CARTESIAN_POINT('',(0.0500000000000,5.51250000000,-0.0));
#171=DIRECTION('',(1.0,0.0,0.0));
#172=VECTOR('',#171,1.0);
#173=LINE('',#170,#172);
#174=EDGE_CURVE('',#136,#169,#173,.T.);
#175=ORIENTED_EDGE('',*,*,#174,.T.);
#176=CARTESIAN_POINT('',(0.180000000000,-0.487500000000,0.0));
#177=VERTEX_POINT('',#176);
#178=CARTESIAN_POINT('',(0.180000000000,-0.487500000000,0.0));
#179=DIRECTION('',(0.0,1.0,-0.0));
#180=VECTOR('',#179,1.0);
#181=LINE('',#178,#180);
#182=EDGE_CURVE('',#177,#169,#181,.T.);
#183=ORIENTED_EDGE('',*,*,#182,.F.);
#184=CARTESIAN_POINT('',(0.0500000000000,-0.487500000000,0.0));
#185=DIRECTION('',(1.0,0.0,0.0));
#186=VECTOR('',#185,1.0);
#187=LINE('',#184,#186);
#188=EDGE_CURVE('',#145,#177,#187,.T.);
#189=ORIENTED_EDGE('',*,*,#188,.F.);
#190=ORIENTED_EDGE('',*,*,#150,.T.);
#191=EDGE_LOOP('',(#175,#183,#189,#190));
#192=FACE_OUTER_BOUND('',#191,.T.);
#193=CARTESIAN_POINT('',(0.115000000000,-0.487500000000,0.0));
#194=DIRECTION('',(0.0,-0.0,-1.0));
#195=DIRECTION('',(-1.0,-0.0,-0.0));
#196=AXIS2_PLACEMENT_3D('',#193,#194,#195);
#197=PLANE('',#196);
#198=ADVANCED_FACE('',(#192),#197,.T.);
#199=CARTESIAN_POINT('',(0.229925736687,5.51250000000,0.0472758824762));
#200=VERTEX_POINT('',#199);
#201=CARTESIAN_POINT('',(0.180000000000,5.51250000000,0.0500000000000));
#202=DIRECTION('',(0.0,-1.0,0.0));
#203=DIRECTION('',(-0.00698126029796,-0.0,-0.999975630705));
#204=AXIS2_PLACEMENT_3D('',#201,#202,#203);
#205=CIRCLE('',#204,0.05);
#206=EDGE_CURVE('',#169,#200,#205,.T.);
#207=ORIENTED_EDGE('',*,*,#206,.T.);
#208=CARTESIAN_POINT('',(0.229925736687,-0.487500000000,0.0472758824762));
#209=VERTEX_POINT('',#208);
#210=CARTESIAN_POINT('',(0.229925736687,-0.487500000000,0.0472758824762));
#211=DIRECTION('',(0.0,1.0,-0.0));
#212=VECTOR('',#211,1.0);
#213=LINE('',#210,#212);
#214=EDGE_CURVE('',#209,#200,#213,.T.);
#215=ORIENTED_EDGE('',*,*,#214,.F.);
#216=CARTESIAN_POINT('',(0.180000000000,-0.487500000000,0.0500000000000));
#217=DIRECTION('',(0.0,-1.0,0.0));
#218=DIRECTION('',(-0.00698126029796,-0.0,-0.999975630705));
#219=AXIS2_PLACEMENT_3D('',#216,#217,#218);
#220=CIRCLE('',#219,0.05);
#221=EDGE_CURVE('',#177,#209,#220,.T.);
#222=ORIENTED_EDGE('',*,*,#221,.F.);
#223=ORIENTED_EDGE('',*,*,#182,.T.);
#224=EDGE_LOOP('',(#207,#215,#222,#223));
#225=FACE_OUTER_BOUND('',#224,.T.);
#226=CARTESIAN_POINT('',(0.180000000000,-0.487500000000,0.0500000000000));
#227=DIRECTION('',(0.0,1.0,-0.0));
#228=DIRECTION('',(-0.00698126029796,-0.0,-0.999975630705));
#229=AXIS2_PLACEMENT_3D('',#226,#227,#228);
#230=CYLINDRICAL_SURFACE('',#229,0.05);
#231=ADVANCED_FACE('',(#225),#230,.T.);
#232=CARTESIAN_POINT('',(0.215879546591,5.51250000000,0.442951077386));
#233=VERTEX_POINT('',#232);
#234=CARTESIAN_POINT('',(-3.16995038063,5.51250000000,0.124669592800));
#235=DIRECTION('',(0.0,-1.0,0.0));
#236=DIRECTION('',(-0.00698126029796,-0.0,-0.999975630705));
#237=AXIS2_PLACEMENT_3D('',#234,#235,#236);
#238=CIRCLE('',#237,3.40075688626729);
#239=EDGE_CURVE('',#200,#233,#238,.T.);
#240=ORIENTED_EDGE('',*,*,#239,.T.);
#241=CARTESIAN_POINT('',(0.215879546591,-0.487500000000,0.442951077386));
#242=VERTEX_POINT('',#241);
#243=CARTESIAN_POINT('',(0.215879546591,-0.487500000000,0.442951077386));
#244=DIRECTION('',(0.0,1.0,-0.0));
#245=VECTOR('',#244,1.0);
#246=LINE('',#243,#245);
#247=EDGE_CURVE('',#242,#233,#246,.T.);
#248=ORIENTED_EDGE('',*,*,#247,.F.);
#249=CARTESIAN_POINT('',(-3.16995038063,-0.487500000000,0.124669592800));
#250=DIRECTION('',(0.0,-1.0,0.0));
#251=DIRECTION('',(-0.00698126029796,-0.0,-0.999975630705));
#252=AXIS2_PLACEMENT_3D('',#249,#250,#251);
#253=CIRCLE('',#252,3.40075688626729);
#254=EDGE_CURVE('',#209,#242,#253,.T.);
#255=ORIENTED_EDGE('',*,*,#254,.F.);
#256=ORIENTED_EDGE('',*,*,#214,.T.);
#257=EDGE_LOOP('',(#240,#248,#255,#256));
#258=FACE_OUTER_BOUND('',#257,.T.);
#259=CARTESIAN_POINT('',(-3.16995038063,-0.487500000000,0.124669592800));
#260=DIRECTION('',(0.0,1.0,-0.0));
#261=DIRECTION('',(-0.00698126029796,-0.0,-0.999975630705));
#262=AXIS2_PLACEMENT_3D('',#259,#260,#261);
#263=CYLINDRICAL_SURFACE('',#262,3.40075688626729);
#264=ADVANCED_FACE('',(#258),#263,.T.);
#265=CARTESIAN_POINT('',(0.210217664517,5.51250000000,0.512753419042));
#266=VERTEX_POINT('',#265);
#267=CARTESIAN_POINT('',(-1.48173117555,5.51250000000,0.340383460849));
#268=DIRECTION('',(0.0,-1.0,0.0));
#269=DIRECTION('',(-0.00698126029796,-0.0,-0.999975630705));
#270=AXIS2_PLACEMENT_3D('',#267,#268,#269);
#271=CIRCLE('',#270,1.70070640614396);
#272=EDGE_CURVE('',#233,#266,#271,.T.);
#273=ORIENTED_EDGE('',*,*,#272,.T.);
#274=CARTESIAN_POINT('',(0.210217664517,-0.487500000000,0.512753419042));
#275=VERTEX_POINT('',#274);
#276=CARTESIAN_POINT('',(0.210217664517,-0.487500000000,0.512753419042));
#277=DIRECTION('',(0.0,1.0,-0.0));
#278=VECTOR('',#277,1.0);
#279=LINE('',#276,#278);
#280=EDGE_CURVE('',#275,#266,#279,.T.);
#281=ORIENTED_EDGE('',*,*,#280,.F.);
#282=CARTESIAN_POINT('',(-1.48173117555,-0.487500000000,0.340383460849));
#283=DIRECTION('',(0.0,-1.0,0.0));
#284=DIRECTION('',(-0.00698126029796,-0.0,-0.999975630705));
#285=AXIS2_PLACEMENT_3D('',#282,#283,#284);
#286=CIRCLE('',#285,1.70070640614396);
#287=EDGE_CURVE('',#242,#275,#286,.T.);
#288=ORIENTED_EDGE('',*,*,#287,.F.);
#289=ORIENTED_EDGE('',*,*,#247,.T.);
#290=EDGE_LOOP('',(#273,#281,#288,#289));
#291=FACE_OUTER_BOUND('',#290,.T.);
#292=CARTESIAN_POINT('',(-1.48173117555,-0.487500000000,0.340383460849));
#293=DIRECTION('',(0.0,1.0,-0.0));
#294=DIRECTION('',(-0.00698126029796,-0.0,-0.999975630705));
#295=AXIS2_PLACEMENT_3D('',#292,#293,#294);
#296=CYLINDRICAL_SURFACE('',#295,1.70070640614396);
#297=ADVANCED_FACE('',(#291),#296,.T.);
#298=CARTESIAN_POINT('',(0.201552306589,5.51250000000,0.584439265073));
#299=VERTEX_POINT('',#298);
#300=CARTESIAN_POINT('',(-1.01525654796,5.51250000000,0.400985215810));
#301=DIRECTION('',(0.0,-1.0,0.0));
#302=DIRECTION('',(-0.00698126029796,-0.0,-0.999975630705));
#303=AXIS2_PLACEMENT_3D('',#300,#301,#302);
#304=CIRCLE('',#303,1.23056051321977);
#305=EDGE_CURVE('',#266,#299,#304,.T.);
#306=ORIENTED_EDGE('',*,*,#305,.T.);
#307=CARTESIAN_POINT('',(0.201552306589,-0.487500000000,0.584439265073));
#308=VERTEX_POINT('',#307);
#309=CARTESIAN_POINT('',(0.201552306589,-0.487500000000,0.584439265073));
#310=DIRECTION('',(0.0,1.0,-0.0));
#311=VECTOR('',#310,1.0);
#312=LINE('',#309,#311);
#313=EDGE_CURVE('',#308,#299,#312,.T.);
#314=ORIENTED_EDGE('',*,*,#313,.F.);
#315=CARTESIAN_POINT('',(-1.01525654796,-0.487500000000,0.400985215810));
#316=DIRECTION('',(0.0,-1.0,0.0));
#317=DIRECTION('',(-0.00698126029796,-0.0,-0.999975630705));
#318=AXIS2_PLACEMENT_3D('',#315,#316,#317);
#319=CIRCLE('',#318,1.23056051321977);
#320=EDGE_CURVE('',#275,#308,#319,.T.);
#321=ORIENTED_EDGE('',*,*,#320,.F.);
#322=ORIENTED_EDGE('',*,*,#280,.T.);
#323=EDGE_LOOP('',(#306,#314,#321,#322));
#324=FACE_OUTER_BOUND('',#323,.T.);
#325=CARTESIAN_POINT('',(-1.01525654796,-0.487500000000,0.400985215810));
#326=DIRECTION('',(0.0,1.0,-0.0));
#327=DIRECTION('',(-0.00698126029796,-0.0,-0.999975630705));
#328=AXIS2_PLACEMENT_3D('',#325,#326,#327);
#329=CYLINDRICAL_SURFACE('',#328,1.23056051321977);
#330=ADVANCED_FACE('',(#324),#329,.T.);
#331=CARTESIAN_POINT('',(0.199531380808,5.51250000000,0.598235558845));
#332=VERTEX_POINT('',#331);
#333=CARTESIAN_POINT('',(-0.0103796185341,5.51250000000,0.560440953253));
#334=DIRECTION('',(0.0,-1.0,0.0));
#335=DIRECTION('',(-0.00698126029796,-0.0,-0.999975630705));
#336=AXIS2_PLACEMENT_3D('',#333,#334,#335);
#337=CIRCLE('',#336,0.213286333028078);
#338=EDGE_CURVE('',#299,#332,#337,.T.);
#339=ORIENTED_EDGE('',*,*,#338,.T.);
#340=CARTESIAN_POINT('',(0.199531380808,-0.487500000000,0.598235558845));
#341=VERTEX_POINT('',#340);
#342=CARTESIAN_POINT('',(0.199531380808,-0.487500000000,0.598235558845));
#343=DIRECTION('',(0.0,1.0,-0.0));
#344=VECTOR('',#343,1.0);
#345=LINE('',#342,#344);
#346=EDGE_CURVE('',#341,#332,#345,.T.);
#347=ORIENTED_EDGE('',*,*,#346,.F.);
#348=CARTESIAN_POINT('',(-0.0103796185341,-0.487500000000,0.560440953253));
#349=DIRECTION('',(0.0,-1.0,0.0));
#350=DIRECTION('',(-0.00698126029796,-0.0,-0.999975630705));
#351=AXIS2_PLACEMENT_3D('',#348,#349,#350);
#352=CIRCLE('',#351,0.213286333028078);
#353=EDGE_CURVE('',#308,#341,#352,.T.);
#354=ORIENTED_EDGE('',*,*,#353,.F.);
#355=ORIENTED_EDGE('',*,*,#313,.T.);
#356=EDGE_LOOP('',(#339,#347,#354,#355));
#357=FACE_OUTER_BOUND('',#356,.T.);
#358=CARTESIAN_POINT('',(-0.0103796185341,-0.487500000000,0.560440953253));
#359=DIRECTION('',(0.0,1.0,-0.0));
#360=DIRECTION('',(-0.00698126029796,-0.0,-0.999975630705));
#361=AXIS2_PLACEMENT_3D('',#358,#359,#360);
#362=CYLINDRICAL_SURFACE('',#361,0.213286333028078);
#363=ADVANCED_FACE('',(#357),#362,.T.);
#364=CARTESIAN_POINT('',(0.149735802815,5.51250000000,0.595224325278));
#365=VERTEX_POINT('',#364);
#366=CARTESIAN_POINT('',(0.174735193583,5.51250000000,0.595049793770));
#367=DIRECTION('',(0.0,-1.0,0.0));
#368=DIRECTION('',(-0.00698126029796,-0.0,-0.999975630705));
#369=AXIS2_PLACEMENT_3D('',#366,#367,#368);
#370=CIRCLE('',#369,0.025);
#371=EDGE_CURVE('',#332,#365,#370,.T.);
#372=ORIENTED_EDGE('',*,*,#371,.T.);
#373=CARTESIAN_POINT('',(0.149735802815,-0.487500000000,0.595224325278));
#374=VERTEX_POINT('',#373);
#375=CARTESIAN_POINT('',(0.149735802815,-0.487500000000,0.595224325278));
#376=DIRECTION('',(0.0,1.0,-0.0));
#377=VECTOR('',#376,1.0);
#378=LINE('',#375,#377);
#379=EDGE_CURVE('',#374,#365,#378,.T.);
#380=ORIENTED_EDGE('',*,*,#379,.F.);
#381=CARTESIAN_POINT('',(0.174735193583,-0.487500000000,0.595049793770));
#382=DIRECTION('',(0.0,-1.0,0.0));
#383=DIRECTION('',(-0.00698126029796,-0.0,-0.999975630705));
#384=AXIS2_PLACEMENT_3D('',#381,#382,#383);
#385=CIRCLE('',#384,0.025);
#386=EDGE_CURVE('',#341,#374,#385,.T.);
#387=ORIENTED_EDGE('',*,*,#386,.F.);
#388=ORIENTED_EDGE('',*,*,#346,.T.);
#389=EDGE_LOOP('',(#372,#380,#387,#388));
#390=FACE_OUTER_BOUND('',#389,.T.);
#391=CARTESIAN_POINT('',(0.174735193583,-0.487500000000,0.595049793770));
#392=DIRECTION('',(0.0,1.0,-0.0));
#393=DIRECTION('',(-0.00698126029796,-0.0,-0.999975630705));
#394=AXIS2_PLACEMENT_3D('',#391,#392,#393);
#395=CYLINDRICAL_SURFACE('',#394,0.025);
#396=ADVANCED_FACE('',(#390),#395,.T.);
#397=CARTESIAN_POINT('',(0.179829944477,5.51250000000,0.0500000000000));
#398=VERTEX_POINT('',#397);
#399=CARTESIAN_POINT('',(-3.53811870281,5.51250000000,0.118227216049));
#400=DIRECTION('',(0.0,1.0,-0.0));
#401=DIRECTION('',(-0.00698126029796,-0.0,-0.999975630705));
#402=AXIS2_PLACEMENT_3D('',#399,#400,#401);
#403=CIRCLE('',#402,3.71857460552754);
#404=EDGE_CURVE('',#365,#398,#403,.T.);
#405=ORIENTED_EDGE('',*,*,#404,.T.);
#406=CARTESIAN_POINT('',(0.179829944477,-0.487500000000,0.0500000000000));
#407=VERTEX_POINT('',#406);
#408=CARTESIAN_POINT('',(0.179829944477,-0.487500000000,0.0500000000000));
#409=DIRECTION('',(0.0,1.0,-0.0));
#410=VECTOR('',#409,1.0);
#411=LINE('',#408,#410);
#412=EDGE_CURVE('',#407,#398,#411,.T.);
#413=ORIENTED_EDGE('',*,*,#412,.F.);
#414=CARTESIAN_POINT('',(-3.53811870281,-0.487500000000,0.118227216049));
#415=DIRECTION('',(-0.0,-1.0,0.0));
#416=DIRECTION('',(-0.00698126029796,-0.0,-0.999975630705));
#417=AXIS2_PLACEMENT_3D('',#414,#415,#416);
#418=CIRCLE('',#417,3.71857460552754);
#419=EDGE_CURVE('',#407,#374,#418,.T.);
#420=ORIENTED_EDGE('',*,*,#419,.T.);
#421=ORIENTED_EDGE('',*,*,#379,.T.);
#422=EDGE_LOOP('',(#405,#413,#420,#421));
#423=FACE_OUTER_BOUND('',#422,.T.);
#424=CARTESIAN_POINT('',(-3.53811870281,-0.487500000000,0.118227216049));
#425=DIRECTION('',(0.0,1.0,-0.0));
#426=DIRECTION('',(-0.00698126029796,-0.0,-0.999975630705));
#427=AXIS2_PLACEMENT_3D('',#424,#425,#426);
#428=CYLINDRICAL_SURFACE('',#427,3.71857460552754);
#429=ADVANCED_FACE('',(#423),#428,.F.);
#430=CARTESIAN_POINT('',(0.0500000000000,5.51250000000,0.0500000000000));
#431=DIRECTION('',(-1.0,-0.0,-0.0));
#432=VECTOR('',#431,1.0);
#433=LINE('',#430,#432);
#434=EDGE_CURVE('',#398,#32,#433,.T.);
#435=ORIENTED_EDGE('',*,*,#434,.T.);
#436=ORIENTED_EDGE('',*,*,#61,.F.);
#437=CARTESIAN_POINT('',(0.0500000000000,-0.487500000000,0.0500000000000));
#438=DIRECTION('',(1.0,0.0,0.0));
#439=VECTOR('',#438,1.0);
#440=LINE('',#437,#439);
#441=EDGE_CURVE('',#50,#407,#440,.T.);
#442=ORIENTED_EDGE('',*,*,#441,.T.);
#443=ORIENTED_EDGE('',*,*,#412,.T.);
#444=EDGE_LOOP('',(#435,#436,#442,#443));
#445=FACE_OUTER_BOUND('',#444,.T.);
#446=CARTESIAN_POINT('',(0.114914972239,-0.487500000000,0.0500000000000));
#447=DIRECTION('',(-0.0,0.0,1.0));
#448=DIRECTION('',(1.0,0.0,0.0));
#449=AXIS2_PLACEMENT_3D('',#446,#447,#448);
#450=PLANE('',#449);
#451=ADVANCED_FACE('',(#445),#450,.T.);
#452=ORIENTED_EDGE('',*,*,#39,.F.);
#453=ORIENTED_EDGE('',*,*,#434,.F.);
#454=ORIENTED_EDGE('',*,*,#404,.F.);
#455=ORIENTED_EDGE('',*,*,#371,.F.);
#456=ORIENTED_EDGE('',*,*,#338,.F.);
#457=ORIENTED_EDGE('',*,*,#305,.F.);
#458=ORIENTED_EDGE('',*,*,#272,.F.);
#459=ORIENTED_EDGE('',*,*,#239,.F.);
#460=ORIENTED_EDGE('',*,*,#206,.F.);
#461=ORIENTED_EDGE('',*,*,#174,.F.);
#462=ORIENTED_EDGE('',*,*,#142,.F.);
#463=ORIENTED_EDGE('',*,*,#110,.F.);
#464=ORIENTED_EDGE('',*,*,#78,.F.);
#465=EDGE_LOOP('',(#452,#453,#454,#455,#456,#457,#458,#459,#460,#461,#462,#463,#464));
#466=FACE_OUTER_BOUND('',#465,.T.);
#467=CARTESIAN_POINT('',(0.0905491374088,5.51250000000,0.0500000000000));
#468=DIRECTION('',(0.0,1.0,-0.0));
#469=DIRECTION('',(-1.0,0.0,0.0));
#470=AXIS2_PLACEMENT_3D('',#467,#468,#469);
#471=PLANE('',#470);
#472=ADVANCED_FACE('',(#466),#471,.T.);
#473=ORIENTED_EDGE('',*,*,#441,.F.);
#474=ORIENTED_EDGE('',*,*,#55,.F.);
#475=ORIENTED_EDGE('',*,*,#93,.T.);
#476=ORIENTED_EDGE('',*,*,#124,.T.);
#477=ORIENTED_EDGE('',*,*,#157,.F.);
#478=ORIENTED_EDGE('',*,*,#188,.T.);
#479=ORIENTED_EDGE('',*,*,#221,.T.);
#480=ORIENTED_EDGE('',*,*,#254,.T.);
#481=ORIENTED_EDGE('',*,*,#287,.T.);
#482=ORIENTED_EDGE('',*,*,#320,.T.);
#483=ORIENTED_EDGE('',*,*,#353,.T.);
#484=ORIENTED_EDGE('',*,*,#386,.T.);
#485=ORIENTED_EDGE('',*,*,#419,.F.);
#486=EDGE_LOOP('',(#473,#474,#475,#476,#477,#478,#479,#480,#481,#482,#483,#484,#485));
#487=FACE_OUTER_BOUND('',#486,.T.);
#488=CARTESIAN_POINT('',(0.0905491374088,-0.487500000000,0.0500000000000));
#489=DIRECTION('',(-0.0,1.0,-0.0));
#490=DIRECTION('',(-1.0,-0.0,0.0));
#491=AXIS2_PLACEMENT_3D('',#488,#489,#490);
#492=PLANE('',#491);
#493=ADVANCED_FACE('',(#487),#492,.F.);
#494=CLOSED_SHELL('',(#70,#103,#134,#167,#198,#231,#264,#297,#330,#363,#396,#429,#451,#472,#493));
#495=MANIFOLD_SOLID_BREP('',#494);
#496=COLOUR_RGB('',1.0,0.0,0.0);
#497=FILL_AREA_STYLE_COLOUR('',#496);
#498=FILL_AREA_STYLE('',(#497));
#499=SURFACE_STYLE_FILL_AREA(#498);
#500=SURFACE_SIDE_STYLE('',(#499));
#501=SURFACE_STYLE_USAGE(.BOTH.,#500);
#502=PRESENTATION_STYLE_ASSIGNMENT((#501));
#503=STYLED_ITEM('',(#502),#495);
#504=ADVANCED_BREP_SHAPE_REPRESENTATION('',(#495,#23),#18);
#505=SHAPE_DEFINITION_REPRESENTATION(#30,#504);
#506=DERIVED_UNIT_ELEMENT(#12,3.0);
#507=VOLUME_UNIT((#506));
#508=NAME_ATTRIBUTE('CUBIC MILLIMETRE',#507);
#509=DERIVED_UNIT_ELEMENT(#12,2.0);
#510=AREA_UNIT((#509));
#511=NAME_ATTRIBUTE('SQUARE MILLIMETRE',#510);
#512=SHAPE_ASPECT('#512','solid #495',#30,.F.);
#513=GEOMETRIC_ITEM_SPECIFIC_USAGE('Shape for Validation Properties','',#512,#504,#495);
#514=MEASURE_REPRESENTATION_ITEM('volume measure',VOLUME_MEASURE(0.504375090812647),#507);
#515=REPRESENTATION('volume',(#514),#18);
#516=PROPERTY_DEFINITION('volume of #495','geometric validation property',#512);
#517=PROPERTY_DEFINITION_REPRESENTATION(#516,#515);
#518=MEASURE_REPRESENTATION_ITEM('surface area measure',AREA_MEASURE(20.6656801463778),#510);
#519=REPRESENTATION('surface area',(#518),#18);
#520=PROPERTY_DEFINITION('area of #495','geometric validation property',#512);
#521=PROPERTY_DEFINITION_REPRESENTATION(#520,#519);
#522=CARTESIAN_POINT('centre point',(0.0945300141208,2.51250000000,0.382530293687));
#523=REPRESENTATION('centroid',(#522),#18);
#524=PROPERTY_DEFINITION('centroid of #495','geometric validation property',#512);
#525=PROPERTY_DEFINITION_REPRESENTATION(#524,#523);
#526=CARTESIAN_POINT('bounding box corner point',(-0.0,-0.487500000000,-0.0));
#527=CARTESIAN_POINT('bounding box corner point',(0.230806505638,5.51250000000,0.950000000000));
#528=REPRESENTATION('bounding box',(#526,#527),#18);
#529=PROPERTY_DEFINITION('bounding box of #495','geometric validation property',#512);
#530=PROPERTY_DEFINITION_REPRESENTATION(#529,#528);
#531=PRESENTATION_LAYER_ASSIGNMENT('1','Unnamed [1]',(#495));
ENDSEC;
END-ISO-10303-21;
