ISO-10303-21;
HEADER;
FILE_DESCRIPTION(('', 'CAx-IF Rec.Pracs.---Representation and Presentation of Product Manufacturing Information (PMI)---4.0---2014-10-13'),'2;1');
FILE_NAME('SG2691.STP', '2024-11-05T13:55:42',(''), (''), 'Kubotek Kosmos 3D Framework Version 6.0.14858.14858', 'Kubotek Kosmos 3D Framework', '');
FILE_SCHEMA(('AP242_MANAGED_MODEL_BASED_3D_ENGINEERING_MIM_LF  { 1 0 10303 442 4 1 4 }'));
ENDSEC;
DATA;
#1=PRODUCT_DEFINITION_CONTEXT('',#4,'design');
#2=PRODUCT_CONTEXT('',#4,'mechanical');
#3=APPLICATION_PROTOCOL_DEFINITION('international standard','ap242_managed_model_based_3d_engineering',2011,#4);
#4=APPLICATION_CONTEXT('managed model based 3d engineering');
#10=DIMENSIONAL_EXPONENTS(1.0,0.0,0.0,0.0,0.0,0.0,0.0);
#11=DIMENSIONAL_EXPONENTS(0.0,0.0,0.0,0.0,0.0,0.0,0.0);
#12=(LENGTH_UNIT()NAMED_UNIT(*)SI_UNIT(.MILLI.,.METRE.));
#13=(NAMED_UNIT(*)PLANE_ANGLE_UNIT()SI_UNIT($,.RADIAN.));
#14=(NAMED_UNIT(*)SI_UNIT($,.STERADIAN.)SOLID_ANGLE_UNIT());
#15=LENGTH_MEASURE_WITH_UNIT(LENGTH_MEASURE(25.4),#12);
#16=(CONVERSION_BASED_UNIT('INCH',#15)LENGTH_UNIT()NAMED_UNIT(#10));
#17=UNCERTAINTY_MEASURE_WITH_UNIT(LENGTH_MEASURE(1.0E-006),#16,'','');
#18=(GEOMETRIC_REPRESENTATION_CONTEXT(3)GLOBAL_UNCERTAINTY_ASSIGNED_CONTEXT((#17))GLOBAL_UNIT_ASSIGNED_CONTEXT((#16,#13,#14))REPRESENTATION_CONTEXT('NONE','WORKSPACE'));
#20=CARTESIAN_POINT('',(0.0,0.0,0.0));
#21=DIRECTION('',(0.0,0.0,1.0));
#22=DIRECTION('',(1.0,0.0,0.0));
#23=AXIS2_PLACEMENT_3D('',#20,#21,#22);
#24=PRODUCT('','','',(#2));
#25=PRODUCT_DEFINITION_FORMATION_WITH_SPECIFIED_SOURCE('','',#24,.NOT_KNOWN.);
#26=PRODUCT_CATEGORY('Part','');
#27=PRODUCT_RELATED_PRODUCT_CATEGORY('detail','',(#24));
#28=PRODUCT_CATEGORY_RELATIONSHIP('','',#26,#27);
#29=PRODUCT_DEFINITION('','',#25,#1);
#30=PRODUCT_DEFINITION_SHAPE('NONE','NONE',#29);
#31=CARTESIAN_POINT('',(0.189000000000,5.51250000000,0.0));
#32=VERTEX_POINT('',#31);
#33=CARTESIAN_POINT('',(0.238991229849,5.51250000000,0.0490635502336));
#34=VERTEX_POINT('',#33);
#35=CARTESIAN_POINT('',(0.189000000000,5.51250000000,0.0500000000000));
#36=DIRECTION('',(-0.0,-1.0,0.0));
#37=DIRECTION('',(0.0287939523683,-0.0,-0.999585368194));
#38=AXIS2_PLACEMENT_3D('',#35,#36,#37);
#39=CIRCLE('',#38,0.05);
#40=EDGE_CURVE('',#32,#34,#39,.T.);
#41=ORIENTED_EDGE('',*,*,#40,.T.);
#42=CARTESIAN_POINT('',(0.238991229849,-0.487500000000,0.0490635502336));
#43=VERTEX_POINT('',#42);
#44=CARTESIAN_POINT('',(0.238991229849,-0.487500000000,0.0490635502336));
#45=DIRECTION('',(0.0,1.0,0.0));
#46=VECTOR('',#45,1.0);
#47=LINE('',#44,#46);
#48=EDGE_CURVE('',#43,#34,#47,.T.);
#49=ORIENTED_EDGE('',*,*,#48,.F.);
#50=CARTESIAN_POINT('',(0.189000000000,-0.487500000000,0.0));
#51=VERTEX_POINT('',#50);
#52=CARTESIAN_POINT('',(0.189000000000,-0.487500000000,0.0500000000000));
#53=DIRECTION('',(-0.0,-1.0,0.0));
#54=DIRECTION('',(0.0287939523683,-0.0,-0.999585368194));
#55=AXIS2_PLACEMENT_3D('',#52,#53,#54);
#56=CIRCLE('',#55,0.05);
#57=EDGE_CURVE('',#51,#43,#56,.T.);
#58=ORIENTED_EDGE('',*,*,#57,.F.);
#59=CARTESIAN_POINT('',(0.189000000000,-0.487500000000,0.0));
#60=DIRECTION('',(0.0,1.0,0.0));
#61=VECTOR('',#60,1.0);
#62=LINE('',#59,#61);
#63=EDGE_CURVE('',#51,#32,#62,.T.);
#64=ORIENTED_EDGE('',*,*,#63,.T.);
#65=EDGE_LOOP('',(#41,#49,#58,#64));
#66=FACE_OUTER_BOUND('',#65,.T.);
#67=CARTESIAN_POINT('',(0.189000000000,-0.487500000000,0.0500000000000));
#68=DIRECTION('',(0.0,1.0,0.0));
#69=DIRECTION('',(-0.700453783155,0.0,0.713697763527));
#70=AXIS2_PLACEMENT_3D('',#67,#68,#69);
#71=CYLINDRICAL_SURFACE('',#70,0.05);
#72=ADVANCED_FACE('',(#66),#71,.T.);
#73=CARTESIAN_POINT('',(0.207231196616,5.51250000000,0.470567110544));
#74=VERTEX_POINT('',#73);
#75=CARTESIAN_POINT('',(-3.16147743402,5.51250000000,0.00478866385852));
#76=DIRECTION('',(-0.0,-1.0,0.0));
#77=DIRECTION('',(0.0287939523683,-0.0,-0.999585368194));
#78=AXIS2_PLACEMENT_3D('',#75,#76,#77);
#79=CIRCLE('',#78,3.40075688626729);
#80=EDGE_CURVE('',#34,#74,#79,.T.);
#81=ORIENTED_EDGE('',*,*,#80,.T.);
#82=CARTESIAN_POINT('',(0.207231196616,-0.487500000000,0.470567110544));
#83=VERTEX_POINT('',#82);
#84=CARTESIAN_POINT('',(0.207231196616,-0.487500000000,0.470567110544));
#85=DIRECTION('',(0.0,1.0,0.0));
#86=VECTOR('',#85,1.0);
#87=LINE('',#84,#86);
#88=EDGE_CURVE('',#83,#74,#87,.T.);
#89=ORIENTED_EDGE('',*,*,#88,.F.);
#90=CARTESIAN_POINT('',(-3.16147743402,-0.487500000000,0.00478866385852));
#91=DIRECTION('',(-0.0,-1.0,0.0));
#92=DIRECTION('',(0.0287939523683,-0.0,-0.999585368194));
#93=AXIS2_PLACEMENT_3D('',#90,#91,#92);
#94=CIRCLE('',#93,3.40075688626729);
#95=EDGE_CURVE('',#43,#83,#94,.T.);
#96=ORIENTED_EDGE('',*,*,#95,.F.);
#97=ORIENTED_EDGE('',*,*,#48,.T.);
#98=EDGE_LOOP('',(#81,#89,#96,#97));
#99=FACE_OUTER_BOUND('',#98,.T.);
#100=CARTESIAN_POINT('',(-3.16147743402,-0.487500000000,0.00478866385852));
#101=DIRECTION('',(0.0,1.0,0.0));
#102=DIRECTION('',(0.0287939523683,0.0,-0.999585368194));
#103=AXIS2_PLACEMENT_3D('',#100,#101,#102);
#104=CYLINDRICAL_SURFACE('',#103,3.40075688626729);
#105=ADVANCED_FACE('',(#99),#104,.T.);
#106=CARTESIAN_POINT('',(0.203002603342,5.51250000000,0.503544587447));
#107=VERTEX_POINT('',#106);
#108=CARTESIAN_POINT('',(-1.48169742211,5.51250000000,0.270761202842));
#109=DIRECTION('',(-0.0,-1.0,0.0));
#110=DIRECTION('',(0.0287939523683,-0.0,-0.999585368194));
#111=AXIS2_PLACEMENT_3D('',#108,#109,#110);
#112=CIRCLE('',#111,1.70070640614396);
#113=EDGE_CURVE('',#74,#107,#112,.T.);
#114=ORIENTED_EDGE('',*,*,#113,.T.);
#115=CARTESIAN_POINT('',(0.203002603342,-0.487500000000,0.503544587447));
#116=VERTEX_POINT('',#115);
#117=CARTESIAN_POINT('',(0.203002603342,-0.487500000000,0.503544587447));
#118=DIRECTION('',(0.0,1.0,0.0));
#119=VECTOR('',#118,1.0);
#120=LINE('',#117,#119);
#121=EDGE_CURVE('',#116,#107,#120,.T.);
#122=ORIENTED_EDGE('',*,*,#121,.F.);
#123=CARTESIAN_POINT('',(-1.48169742211,-0.487500000000,0.270761202842));
#124=DIRECTION('',(-0.0,-1.0,0.0));
#125=DIRECTION('',(0.0287939523683,-0.0,-0.999585368194));
#126=AXIS2_PLACEMENT_3D('',#123,#124,#125);
#127=CIRCLE('',#126,1.70070640614396);
#128=EDGE_CURVE('',#83,#116,#127,.T.);
#129=ORIENTED_EDGE('',*,*,#128,.F.);
#130=ORIENTED_EDGE('',*,*,#88,.T.);
#131=EDGE_LOOP('',(#114,#122,#129,#130));
#132=FACE_OUTER_BOUND('',#131,.T.);
#133=CARTESIAN_POINT('',(-1.48169742211,-0.487500000000,0.270761202842));
#134=DIRECTION('',(0.0,1.0,0.0));
#135=DIRECTION('',(0.0287939523683,0.0,-0.999585368194));
#136=AXIS2_PLACEMENT_3D('',#133,#134,#135);
#137=CYLINDRICAL_SURFACE('',#136,1.70070640614396);
#138=ADVANCED_FACE('',(#132),#137,.T.);
#139=CARTESIAN_POINT('',(0.191778472741,5.51250000000,0.574874580028));
#140=VERTEX_POINT('',#139);
#141=CARTESIAN_POINT('',(-1.01768916524,5.51250000000,0.348010723534));
#142=DIRECTION('',(-0.0,-1.0,0.0));
#143=DIRECTION('',(0.0287939523683,-0.0,-0.999585368194));
#144=AXIS2_PLACEMENT_3D('',#141,#142,#143);
#145=CIRCLE('',#144,1.23056051321976);
#146=EDGE_CURVE('',#107,#140,#145,.T.);
#147=ORIENTED_EDGE('',*,*,#146,.T.);
#148=CARTESIAN_POINT('',(0.191778472741,-0.487500000000,0.574874580028));
#149=VERTEX_POINT('',#148);
#150=CARTESIAN_POINT('',(0.191778472741,-0.487500000000,0.574874580028));
#151=DIRECTION('',(0.0,1.0,0.0));
#152=VECTOR('',#151,1.0);
#153=LINE('',#150,#152);
#154=EDGE_CURVE('',#149,#140,#153,.T.);
#155=ORIENTED_EDGE('',*,*,#154,.F.);
#156=CARTESIAN_POINT('',(-1.01768916524,-0.487500000000,0.348010723534));
#157=DIRECTION('',(-0.0,-1.0,0.0));
#158=DIRECTION('',(0.0287939523683,-0.0,-0.999585368194));
#159=AXIS2_PLACEMENT_3D('',#156,#157,#158);
#160=CIRCLE('',#159,1.23056051321976);
#161=EDGE_CURVE('',#116,#149,#160,.T.);
#162=ORIENTED_EDGE('',*,*,#161,.F.);
#163=ORIENTED_EDGE('',*,*,#121,.T.);
#164=EDGE_LOOP('',(#147,#155,#162,#163));
#165=FACE_OUTER_BOUND('',#164,.T.);
#166=CARTESIAN_POINT('',(-1.01768916524,-0.487500000000,0.348010723534));
#167=DIRECTION('',(0.0,1.0,0.0));
#168=DIRECTION('',(0.0287939523683,0.0,-0.999585368194));
#169=AXIS2_PLACEMENT_3D('',#166,#167,#168);
#170=CYLINDRICAL_SURFACE('',#169,1.23056051321976);
#171=ADVANCED_FACE('',(#165),#170,.T.);
#172=CARTESIAN_POINT('',(0.189265324643,5.51250000000,0.588589752265));
#173=VERTEX_POINT('',#172);
#174=CARTESIAN_POINT('',(-0.0191593556242,5.51250000000,0.543310479832));
#175=DIRECTION('',(-0.0,-1.0,0.0));
#176=DIRECTION('',(0.0287939523683,-0.0,-0.999585368194));
#177=AXIS2_PLACEMENT_3D('',#174,#175,#176);
#178=CIRCLE('',#177,0.213286333028078);
#179=EDGE_CURVE('',#140,#173,#178,.T.);
#180=ORIENTED_EDGE('',*,*,#179,.T.);
#181=CARTESIAN_POINT('',(0.189265324643,-0.487500000000,0.588589752265));
#182=VERTEX_POINT('',#181);
#183=CARTESIAN_POINT('',(0.189265324643,-0.487500000000,0.588589752265));
#184=DIRECTION('',(0.0,1.0,0.0));
#185=VECTOR('',#184,1.0);
#186=LINE('',#183,#185);
#187=EDGE_CURVE('',#182,#173,#186,.T.);
#188=ORIENTED_EDGE('',*,*,#187,.F.);
#189=CARTESIAN_POINT('',(-0.0191593556242,-0.487500000000,0.543310479832));
#190=DIRECTION('',(-0.0,-1.0,0.0));
#191=DIRECTION('',(0.0287939523683,-0.0,-0.999585368194));
#192=AXIS2_PLACEMENT_3D('',#189,#190,#191);
#193=CIRCLE('',#192,0.213286333028078);
#194=EDGE_CURVE('',#149,#182,#193,.T.);
#195=ORIENTED_EDGE('',*,*,#194,.F.);
#196=ORIENTED_EDGE('',*,*,#154,.T.);
#197=EDGE_LOOP('',(#180,#188,#195,#196));
#198=FACE_OUTER_BOUND('',#197,.T.);
#199=CARTESIAN_POINT('',(-0.0191593556242,-0.487500000000,0.543310479832));
#200=DIRECTION('',(0.0,1.0,0.0));
#201=DIRECTION('',(0.0287939523683,0.0,-0.999585368194));
#202=AXIS2_PLACEMENT_3D('',#199,#200,#201);
#203=CYLINDRICAL_SURFACE('',#202,0.213286333028078);
#204=ADVANCED_FACE('',(#198),#203,.T.);
#205=CARTESIAN_POINT('',(0.139609332964,5.51250000000,0.583799177603));
#206=VERTEX_POINT('',#205);
#207=CARTESIAN_POINT('',(0.164598967169,5.51250000000,0.584519026412));
#208=DIRECTION('',(0.0,-1.0,0.0));
#209=DIRECTION('',(0.0287939523683,-0.0,-0.999585368194));
#210=AXIS2_PLACEMENT_3D('',#207,#208,#209);
#211=CIRCLE('',#210,0.025);
#212=EDGE_CURVE('',#173,#206,#211,.T.);
#213=ORIENTED_EDGE('',*,*,#212,.T.);
#214=CARTESIAN_POINT('',(0.139609332964,-0.487500000000,0.583799177603));
#215=VERTEX_POINT('',#214);
#216=CARTESIAN_POINT('',(0.139609332964,-0.487500000000,0.583799177603));
#217=DIRECTION('',(0.0,1.0,0.0));
#218=VECTOR('',#217,1.0);
#219=LINE('',#216,#218);
#220=EDGE_CURVE('',#215,#206,#219,.T.);
#221=ORIENTED_EDGE('',*,*,#220,.F.);
#222=CARTESIAN_POINT('',(0.164598967169,-0.487500000000,0.584519026412));
#223=DIRECTION('',(0.0,-1.0,0.0));
#224=DIRECTION('',(0.0287939523683,-0.0,-0.999585368194));
#225=AXIS2_PLACEMENT_3D('',#222,#223,#224);
#226=CIRCLE('',#225,0.025);
#227=EDGE_CURVE('',#182,#215,#226,.T.);
#228=ORIENTED_EDGE('',*,*,#227,.F.);
#229=ORIENTED_EDGE('',*,*,#187,.T.);
#230=EDGE_LOOP('',(#213,#221,#228,#229));
#231=FACE_OUTER_BOUND('',#230,.T.);
#232=CARTESIAN_POINT('',(0.164598967169,-0.487500000000,0.584519026412));
#233=DIRECTION('',(0.0,1.0,0.0));
#234=DIRECTION('',(0.0287939523683,0.0,-0.999585368194));
#235=AXIS2_PLACEMENT_3D('',#232,#233,#234);
#236=CYLINDRICAL_SURFACE('',#235,0.025);
#237=ADVANCED_FACE('',(#231),#236,.T.);
#238=CARTESIAN_POINT('',(0.189000000000,5.51250000000,0.0500000000000));
#239=VERTEX_POINT('',#238);
#240=CARTESIAN_POINT('',(-3.52882195474,5.51250000000,-0.0248131655868));
#241=DIRECTION('',(-0.0,1.0,-0.0));
#242=DIRECTION('',(0.0287939523683,-0.0,-0.999585368194));
#243=AXIS2_PLACEMENT_3D('',#240,#241,#242);
#244=CIRCLE('',#243,3.71857460552754);
#245=EDGE_CURVE('',#206,#239,#244,.T.);
#246=ORIENTED_EDGE('',*,*,#245,.T.);
#247=CARTESIAN_POINT('',(0.189000000000,-0.487500000000,0.0500000000000));
#248=VERTEX_POINT('',#247);
#249=CARTESIAN_POINT('',(0.189000000000,-0.487500000000,0.0500000000000));
#250=DIRECTION('',(0.0,1.0,0.0));
#251=VECTOR('',#250,1.0);
#252=LINE('',#249,#251);
#253=EDGE_CURVE('',#248,#239,#252,.T.);
#254=ORIENTED_EDGE('',*,*,#253,.F.);
#255=CARTESIAN_POINT('',(-3.52882195474,-0.487500000000,-0.0248131655868));
#256=DIRECTION('',(0.0,-1.0,0.0));
#257=DIRECTION('',(0.0287939523683,-0.0,-0.999585368194));
#258=AXIS2_PLACEMENT_3D('',#255,#256,#257);
#259=CIRCLE('',#258,3.71857460552754);
#260=EDGE_CURVE('',#248,#215,#259,.T.);
#261=ORIENTED_EDGE('',*,*,#260,.T.);
#262=ORIENTED_EDGE('',*,*,#220,.T.);
#263=EDGE_LOOP('',(#246,#254,#261,#262));
#264=FACE_OUTER_BOUND('',#263,.T.);
#265=CARTESIAN_POINT('',(-3.52882195474,-0.487500000000,-0.0248131655868));
#266=DIRECTION('',(0.0,1.0,0.0));
#267=DIRECTION('',(0.0287939523683,0.0,-0.999585368194));
#268=AXIS2_PLACEMENT_3D('',#265,#266,#267);
#269=CYLINDRICAL_SURFACE('',#268,3.71857460552754);
#270=ADVANCED_FACE('',(#264),#269,.F.);
#271=CARTESIAN_POINT('',(0.0500000000000,5.51250000000,0.0500000000000));
#272=VERTEX_POINT('',#271);
#273=CARTESIAN_POINT('',(0.0500000000000,5.51250000000,0.0500000000000));
#274=DIRECTION('',(-1.0,-0.0,-0.0));
#275=VECTOR('',#274,1.0);
#276=LINE('',#273,#275);
#277=EDGE_CURVE('',#239,#272,#276,.T.);
#278=ORIENTED_EDGE('',*,*,#277,.T.);
#279=CARTESIAN_POINT('',(0.0500000000000,-0.487500000000,0.0500000000000));
#280=VERTEX_POINT('',#279);
#281=CARTESIAN_POINT('',(0.0500000000000,-0.487500000000,0.0500000000000));
#282=DIRECTION('',(0.0,1.0,0.0));
#283=VECTOR('',#282,1.0);
#284=LINE('',#281,#283);
#285=EDGE_CURVE('',#280,#272,#284,.T.);
#286=ORIENTED_EDGE('',*,*,#285,.F.);
#287=CARTESIAN_POINT('',(0.0500000000000,-0.487500000000,0.0500000000000));
#288=DIRECTION('',(1.0,0.0,0.0));
#289=VECTOR('',#288,1.0);
#290=LINE('',#287,#289);
#291=EDGE_CURVE('',#280,#248,#290,.T.);
#292=ORIENTED_EDGE('',*,*,#291,.T.);
#293=ORIENTED_EDGE('',*,*,#253,.T.);
#294=EDGE_LOOP('',(#278,#286,#292,#293));
#295=FACE_OUTER_BOUND('',#294,.T.);
#296=CARTESIAN_POINT('',(0.119500000000,-0.487500000000,0.0500000000000));
#297=DIRECTION('',(0.0,0.0,1.0));
#298=DIRECTION('',(1.0,0.0,0.0));
#299=AXIS2_PLACEMENT_3D('',#296,#297,#298);
#300=PLANE('',#299);
#301=ADVANCED_FACE('',(#295),#300,.T.);
#302=CARTESIAN_POINT('',(0.0500000000000,5.51250000000,0.925000000000));
#303=VERTEX_POINT('',#302);
#304=CARTESIAN_POINT('',(0.0500000000000,5.51250000000,0.925000000000));
#305=DIRECTION('',(0.0,0.0,1.0));
#306=VECTOR('',#305,1.0);
#307=LINE('',#304,#306);
#308=EDGE_CURVE('',#272,#303,#307,.T.);
#309=ORIENTED_EDGE('',*,*,#308,.T.);
#310=CARTESIAN_POINT('',(0.0500000000000,-0.487500000000,0.925000000000));
#311=VERTEX_POINT('',#310);
#312=CARTESIAN_POINT('',(0.0500000000000,-0.487500000000,0.925000000000));
#313=DIRECTION('',(0.0,1.0,0.0));
#314=VECTOR('',#313,1.0);
#315=LINE('',#312,#314);
#316=EDGE_CURVE('',#311,#303,#315,.T.);
#317=ORIENTED_EDGE('',*,*,#316,.F.);
#318=CARTESIAN_POINT('',(0.0500000000000,-0.487500000000,0.925000000000));
#319=DIRECTION('',(0.0,-0.0,-1.0));
#320=VECTOR('',#319,1.0);
#321=LINE('',#318,#320);
#322=EDGE_CURVE('',#311,#280,#321,.T.);
#323=ORIENTED_EDGE('',*,*,#322,.T.);
#324=ORIENTED_EDGE('',*,*,#285,.T.);
#325=EDGE_LOOP('',(#309,#317,#323,#324));
#326=FACE_OUTER_BOUND('',#325,.T.);
#327=CARTESIAN_POINT('',(0.0500000000000,-0.487500000000,0.487500000000));
#328=DIRECTION('',(1.0,-0.0,0.0));
#329=DIRECTION('',(0.0,-0.0,-1.0));
#330=AXIS2_PLACEMENT_3D('',#327,#328,#329);
#331=PLANE('',#330);
#332=ADVANCED_FACE('',(#326),#331,.T.);
#333=CARTESIAN_POINT('',(0.0,5.51250000000,0.925000000000));
#334=VERTEX_POINT('',#333);
#335=CARTESIAN_POINT('',(0.0250000000000,5.51250000000,0.925000000000));
#336=DIRECTION('',(0.0,-1.0,0.0));
#337=DIRECTION('',(-0.0,-0.0,-1.0));
#338=AXIS2_PLACEMENT_3D('',#335,#336,#337);
#339=CIRCLE('',#338,0.025);
#340=EDGE_CURVE('',#303,#334,#339,.T.);
#341=ORIENTED_EDGE('',*,*,#340,.T.);
#342=CARTESIAN_POINT('',(0.0,-0.487500000000,0.925000000000));
#343=VERTEX_POINT('',#342);
#344=CARTESIAN_POINT('',(0.0,-0.487500000000,0.925000000000));
#345=DIRECTION('',(0.0,1.0,0.0));
#346=VECTOR('',#345,1.0);
#347=LINE('',#344,#346);
#348=EDGE_CURVE('',#343,#334,#347,.T.);
#349=ORIENTED_EDGE('',*,*,#348,.F.);
#350=CARTESIAN_POINT('',(0.0250000000000,-0.487500000000,0.925000000000));
#351=DIRECTION('',(0.0,-1.0,0.0));
#352=DIRECTION('',(-0.0,-0.0,-1.0));
#353=AXIS2_PLACEMENT_3D('',#350,#351,#352);
#354=CIRCLE('',#353,0.025);
#355=EDGE_CURVE('',#311,#343,#354,.T.);
#356=ORIENTED_EDGE('',*,*,#355,.F.);
#357=ORIENTED_EDGE('',*,*,#316,.T.);
#358=EDGE_LOOP('',(#341,#349,#356,#357));
#359=FACE_OUTER_BOUND('',#358,.T.);
#360=CARTESIAN_POINT('',(0.0250000000000,-0.487500000000,0.925000000000));
#361=DIRECTION('',(0.0,1.0,0.0));
#362=DIRECTION('',(-0.0,0.0,-1.0));
#363=AXIS2_PLACEMENT_3D('',#360,#361,#362);
#364=CYLINDRICAL_SURFACE('',#363,0.025);
#365=ADVANCED_FACE('',(#359),#364,.T.);
#366=CARTESIAN_POINT('',(-0.0,5.51250000000,0.0500000000000));
#367=VERTEX_POINT('',#366);
#368=CARTESIAN_POINT('',(0.0,5.51250000000,0.925000000000));
#369=DIRECTION('',(0.0,-0.0,-1.0));
#370=VECTOR('',#369,1.0);
#371=LINE('',#368,#370);
#372=EDGE_CURVE('',#334,#367,#371,.T.);
#373=ORIENTED_EDGE('',*,*,#372,.T.);
#374=CARTESIAN_POINT('',(-0.0,-0.487500000000,0.0500000000000));
#375=VERTEX_POINT('',#374);
#376=CARTESIAN_POINT('',(-0.0,-0.487500000000,0.0500000000000));
#377=DIRECTION('',(0.0,1.0,0.0));
#378=VECTOR('',#377,1.0);
#379=LINE('',#376,#378);
#380=EDGE_CURVE('',#375,#367,#379,.T.);
#381=ORIENTED_EDGE('',*,*,#380,.F.);
#382=CARTESIAN_POINT('',(0.0,-0.487500000000,0.925000000000));
#383=DIRECTION('',(0.0,-0.0,-1.0));
#384=VECTOR('',#383,1.0);
#385=LINE('',#382,#384);
#386=EDGE_CURVE('',#343,#375,#385,.T.);
#387=ORIENTED_EDGE('',*,*,#386,.F.);
#388=ORIENTED_EDGE('',*,*,#348,.T.);
#389=EDGE_LOOP('',(#373,#381,#387,#388));
#390=FACE_OUTER_BOUND('',#389,.T.);
#391=CARTESIAN_POINT('',(0.0,-0.487500000000,0.487500000000));
#392=DIRECTION('',(-1.0,0.0,-0.0));
#393=DIRECTION('',(-0.0,0.0,1.0));
#394=AXIS2_PLACEMENT_3D('',#391,#392,#393);
#395=PLANE('',#394);
#396=ADVANCED_FACE('',(#390),#395,.T.);
#397=CARTESIAN_POINT('',(0.0500000000000,5.51250000000,0.0));
#398=VERTEX_POINT('',#397);
#399=CARTESIAN_POINT('',(0.0500000000000,5.51250000000,0.0500000000000));
#400=DIRECTION('',(0.0,-1.0,0.0));
#401=DIRECTION('',(1.0,0.0,0.0));
#402=AXIS2_PLACEMENT_3D('',#399,#400,#401);
#403=CIRCLE('',#402,0.05);
#404=EDGE_CURVE('',#367,#398,#403,.T.);
#405=ORIENTED_EDGE('',*,*,#404,.T.);
#406=CARTESIAN_POINT('',(0.0500000000000,-0.487500000000,0.0));
#407=VERTEX_POINT('',#406);
#408=CARTESIAN_POINT('',(0.0500000000000,-0.487500000000,0.0));
#409=DIRECTION('',(0.0,1.0,0.0));
#410=VECTOR('',#409,1.0);
#411=LINE('',#408,#410);
#412=EDGE_CURVE('',#407,#398,#411,.T.);
#413=ORIENTED_EDGE('',*,*,#412,.F.);
#414=CARTESIAN_POINT('',(0.0500000000000,-0.487500000000,0.0500000000000));
#415=DIRECTION('',(0.0,1.0,-0.0));
#416=DIRECTION('',(1.0,0.0,0.0));
#417=AXIS2_PLACEMENT_3D('',#414,#415,#416);
#418=CIRCLE('',#417,0.05);
#419=EDGE_CURVE('',#407,#375,#418,.T.);
#420=ORIENTED_EDGE('',*,*,#419,.T.);
#421=ORIENTED_EDGE('',*,*,#380,.T.);
#422=EDGE_LOOP('',(#405,#413,#420,#421));
#423=FACE_OUTER_BOUND('',#422,.T.);
#424=CARTESIAN_POINT('',(0.0500000000000,-0.487500000000,0.0500000000000));
#425=DIRECTION('',(0.0,1.0,0.0));
#426=DIRECTION('',(1.0,-0.0,0.0));
#427=AXIS2_PLACEMENT_3D('',#424,#425,#426);
#428=CYLINDRICAL_SURFACE('',#427,0.05);
#429=ADVANCED_FACE('',(#423),#428,.T.);
#430=CARTESIAN_POINT('',(0.0500000000000,5.51250000000,0.0));
#431=DIRECTION('',(1.0,0.0,0.0));
#432=VECTOR('',#431,1.0);
#433=LINE('',#430,#432);
#434=EDGE_CURVE('',#398,#32,#433,.T.);
#435=ORIENTED_EDGE('',*,*,#434,.T.);
#436=ORIENTED_EDGE('',*,*,#63,.F.);
#437=CARTESIAN_POINT('',(0.0500000000000,-0.487500000000,0.0));
#438=DIRECTION('',(1.0,0.0,0.0));
#439=VECTOR('',#438,1.0);
#440=LINE('',#437,#439);
#441=EDGE_CURVE('',#407,#51,#440,.T.);
#442=ORIENTED_EDGE('',*,*,#441,.F.);
#443=ORIENTED_EDGE('',*,*,#412,.T.);
#444=EDGE_LOOP('',(#435,#436,#442,#443));
#445=FACE_OUTER_BOUND('',#444,.T.);
#446=CARTESIAN_POINT('',(0.119500000000,-0.487500000000,0.0));
#447=DIRECTION('',(0.0,0.0,-1.0));
#448=DIRECTION('',(-1.0,-0.0,-0.0));
#449=AXIS2_PLACEMENT_3D('',#446,#447,#448);
#450=PLANE('',#449);
#451=ADVANCED_FACE('',(#445),#450,.T.);
#452=ORIENTED_EDGE('',*,*,#40,.F.);
#453=ORIENTED_EDGE('',*,*,#434,.F.);
#454=ORIENTED_EDGE('',*,*,#404,.F.);
#455=ORIENTED_EDGE('',*,*,#372,.F.);
#456=ORIENTED_EDGE('',*,*,#340,.F.);
#457=ORIENTED_EDGE('',*,*,#308,.F.);
#458=ORIENTED_EDGE('',*,*,#277,.F.);
#459=ORIENTED_EDGE('',*,*,#245,.F.);
#460=ORIENTED_EDGE('',*,*,#212,.F.);
#461=ORIENTED_EDGE('',*,*,#179,.F.);
#462=ORIENTED_EDGE('',*,*,#146,.F.);
#463=ORIENTED_EDGE('',*,*,#113,.F.);
#464=ORIENTED_EDGE('',*,*,#80,.F.);
#465=EDGE_LOOP('',(#452,#453,#454,#455,#456,#457,#458,#459,#460,#461,#462,#463,#464));
#466=FACE_OUTER_BOUND('',#465,.T.);
#467=CARTESIAN_POINT('',(0.0934131750000,5.51250000000,0.0));
#468=DIRECTION('',(0.0,1.0,0.0));
#469=DIRECTION('',(-1.0,0.0,0.0));
#470=AXIS2_PLACEMENT_3D('',#467,#468,#469);
#471=PLANE('',#470);
#472=ADVANCED_FACE('',(#466),#471,.T.);
#473=ORIENTED_EDGE('',*,*,#441,.T.);
#474=ORIENTED_EDGE('',*,*,#57,.T.);
#475=ORIENTED_EDGE('',*,*,#95,.T.);
#476=ORIENTED_EDGE('',*,*,#128,.T.);
#477=ORIENTED_EDGE('',*,*,#161,.T.);
#478=ORIENTED_EDGE('',*,*,#194,.T.);
#479=ORIENTED_EDGE('',*,*,#227,.T.);
#480=ORIENTED_EDGE('',*,*,#260,.F.);
#481=ORIENTED_EDGE('',*,*,#291,.F.);
#482=ORIENTED_EDGE('',*,*,#322,.F.);
#483=ORIENTED_EDGE('',*,*,#355,.T.);
#484=ORIENTED_EDGE('',*,*,#386,.T.);
#485=ORIENTED_EDGE('',*,*,#419,.F.);
#486=EDGE_LOOP('',(#473,#474,#475,#476,#477,#478,#479,#480,#481,#482,#483,#484,#485));
#487=FACE_OUTER_BOUND('',#486,.T.);
#488=CARTESIAN_POINT('',(0.0934131750000,-0.487500000000,0.0));
#489=DIRECTION('',(-0.0,1.0,-0.0));
#490=DIRECTION('',(-1.0,-0.0,0.0));
#491=AXIS2_PLACEMENT_3D('',#488,#489,#490);
#492=PLANE('',#491);
#493=ADVANCED_FACE('',(#487),#492,.F.);
#494=CLOSED_SHELL('',(#72,#105,#138,#171,#204,#237,#270,#301,#332,#365,#396,#429,#451,#472,#493));
#495=MANIFOLD_SOLID_BREP('',#494);
#496=COLOUR_RGB('',1.0,0.0,0.0);
#497=FILL_AREA_STYLE_COLOUR('',#496);
#498=FILL_AREA_STYLE('',(#497));
#499=SURFACE_STYLE_FILL_AREA(#498);
#500=SURFACE_SIDE_STYLE('',(#499));
#501=SURFACE_STYLE_USAGE(.BOTH.,#500);
#502=PRESENTATION_STYLE_ASSIGNMENT((#501));
#503=STYLED_ITEM('',(#502),#495);
#504=ADVANCED_BREP_SHAPE_REPRESENTATION('',(#495,#23),#18);
#505=SHAPE_DEFINITION_REPRESENTATION(#30,#504);
#506=DERIVED_UNIT_ELEMENT(#12,3.0);
#507=VOLUME_UNIT((#506));
#508=NAME_ATTRIBUTE('CUBIC MILLIMETRE',#507);
#509=DERIVED_UNIT_ELEMENT(#12,2.0);
#510=AREA_UNIT((#509));
#511=NAME_ATTRIBUTE('SQUARE MILLIMETRE',#510);
#512=SHAPE_ASPECT('#512','solid #495',#30,.F.);
#513=GEOMETRIC_ITEM_SPECIFIC_USAGE('Shape for Validation Properties','',#512,#504,#495);
#514=MEASURE_REPRESENTATION_ITEM('volume measure',VOLUME_MEASURE(0.504479200241781),#507);
#515=REPRESENTATION('volume',(#514),#18);
#516=PROPERTY_DEFINITION('volume of #495','geometric validation property',#512);
#517=PROPERTY_DEFINITION_REPRESENTATION(#516,#515);
#518=MEASURE_REPRESENTATION_ITEM('surface area measure',AREA_MEASURE(20.6655992516941),#510);
#519=REPRESENTATION('surface area',(#518),#18);
#520=PROPERTY_DEFINITION('area of #495','geometric validation property',#512);
#521=PROPERTY_DEFINITION_REPRESENTATION(#520,#519);
#522=CARTESIAN_POINT('centre point',(0.0943685763244,2.51250000000,0.379190528303));
#523=REPRESENTATION('centroid',(#522),#18);
#524=PROPERTY_DEFINITION('centroid of #495','geometric validation property',#512);
#525=PROPERTY_DEFINITION_REPRESENTATION(#524,#523);
#526=CARTESIAN_POINT('bounding box corner point',(-0.0,-0.487500000000,0.0));
#527=CARTESIAN_POINT('bounding box corner point',(0.238991229849,5.51250000000,0.950000000000));
#528=REPRESENTATION('bounding box',(#526,#527),#18);
#529=PROPERTY_DEFINITION('bounding box of #495','geometric validation property',#512);
#530=PROPERTY_DEFINITION_REPRESENTATION(#529,#528);
#531=PRESENTATION_LAYER_ASSIGNMENT('1','Unnamed [1]',(#495));
ENDSEC;
END-ISO-10303-21;
