ISO-10303-21;
HEADER;
FILE_DESCRIPTION(('', 'CAx-IF Rec.Pracs.---Representation and Presentation of Product Manufacturing Information (PMI)---4.0---2014-10-13'),'2;1');
FILE_NAME('SG2690.STP', '2024-11-05T13:52:08',(''), (''), 'Kubotek Kosmos 3D Framework Version 6.0.14858.14858', 'Kubotek Kosmos 3D Framework', '');
FILE_SCHEMA(('AP242_MANAGED_MODEL_BASED_3D_ENGINEERING_MIM_LF  { 1 0 10303 442 4 1 4 }'));
ENDSEC;
DATA;
#1=PRODUCT_DEFINITION_CONTEXT('',#4,'design');
#2=PRODUCT_CONTEXT('',#4,'mechanical');
#3=APPLICATION_PROTOCOL_DEFINITION('international standard','ap242_managed_model_based_3d_engineering',2011,#4);
#4=APPLICATION_CONTEXT('managed model based 3d engineering');
#10=DIMENSIONAL_EXPONENTS(1.0,0.0,0.0,0.0,0.0,0.0,0.0);
#11=DIMENSIONAL_EXPONENTS(0.0,0.0,0.0,0.0,0.0,0.0,0.0);
#12=(LENGTH_UNIT()NAMED_UNIT(*)SI_UNIT(.MILLI.,.METRE.));
#13=(NAMED_UNIT(*)PLANE_ANGLE_UNIT()SI_UNIT($,.RADIAN.));
#14=(NAMED_UNIT(*)SI_UNIT($,.STERADIAN.)SOLID_ANGLE_UNIT());
#15=LENGTH_MEASURE_WITH_UNIT(LENGTH_MEASURE(25.4),#12);
#16=(CONVERSION_BASED_UNIT('INCH',#15)LENGTH_UNIT()NAMED_UNIT(#10));
#17=UNCERTAINTY_MEASURE_WITH_UNIT(LENGTH_MEASURE(1.0E-006),#16,'','');
#18=(GEOMETRIC_REPRESENTATION_CONTEXT(3)GLOBAL_UNCERTAINTY_ASSIGNED_CONTEXT((#17))GLOBAL_UNIT_ASSIGNED_CONTEXT((#16,#13,#14))REPRESENTATION_CONTEXT('NONE','WORKSPACE'));
#20=CARTESIAN_POINT('',(0.0,0.0,0.0));
#21=DIRECTION('',(0.0,0.0,1.0));
#22=DIRECTION('',(1.0,0.0,0.0));
#23=AXIS2_PLACEMENT_3D('',#20,#21,#22);
#24=PRODUCT('','','',(#2));
#25=PRODUCT_DEFINITION_FORMATION_WITH_SPECIFIED_SOURCE('','',#24,.NOT_KNOWN.);
#26=PRODUCT_CATEGORY('Part','');
#27=PRODUCT_RELATED_PRODUCT_CATEGORY('detail','',(#24));
#28=PRODUCT_CATEGORY_RELATIONSHIP('','',#26,#27);
#29=PRODUCT_DEFINITION('','',#25,#1);
#30=PRODUCT_DEFINITION_SHAPE('NONE','NONE',#29);
#31=CARTESIAN_POINT('',(-0.00157047735161,6.0,0.0449725872159));
#32=VERTEX_POINT('',#31);
#33=CARTESIAN_POINT('',(-0.00157047735161,6.0,0.714972587216));
#34=VERTEX_POINT('',#33);
#35=CARTESIAN_POINT('',(-0.00157047735161,6.0,0.0449725872159));
#36=DIRECTION('',(0.0,0.0,1.0));
#37=VECTOR('',#36,1.0);
#38=LINE('',#35,#37);
#39=EDGE_CURVE('',#32,#34,#38,.T.);
#40=ORIENTED_EDGE('',*,*,#39,.T.);
#41=CARTESIAN_POINT('',(-0.00157047735161,0.0,0.714972587216));
#42=VERTEX_POINT('',#41);
#43=CARTESIAN_POINT('',(-0.00157047735161,0.0,0.714972587216));
#44=DIRECTION('',(0.0,1.0,-0.0));
#45=VECTOR('',#44,1.0);
#46=LINE('',#43,#45);
#47=EDGE_CURVE('',#42,#34,#46,.T.);
#48=ORIENTED_EDGE('',*,*,#47,.F.);
#49=CARTESIAN_POINT('',(-0.00157047735161,0.0,0.0449725872159));
#50=VERTEX_POINT('',#49);
#51=CARTESIAN_POINT('',(-0.00157047735161,0.0,0.0449725872159));
#52=DIRECTION('',(0.0,0.0,1.0));
#53=VECTOR('',#52,1.0);
#54=LINE('',#51,#53);
#55=EDGE_CURVE('',#50,#42,#54,.T.);
#56=ORIENTED_EDGE('',*,*,#55,.F.);
#57=CARTESIAN_POINT('',(-0.00157047735161,0.0,0.0449725872159));
#58=DIRECTION('',(0.0,1.0,-0.0));
#59=VECTOR('',#58,1.0);
#60=LINE('',#57,#59);
#61=EDGE_CURVE('',#50,#32,#60,.T.);
#62=ORIENTED_EDGE('',*,*,#61,.T.);
#63=EDGE_LOOP('',(#40,#48,#56,#62));
#64=FACE_OUTER_BOUND('',#63,.T.);
#65=CARTESIAN_POINT('',(-0.00157047735161,0.0,0.379972587216));
#66=DIRECTION('',(1.0,-0.0,0.0));
#67=DIRECTION('',(-0.0,-0.0,-1.0));
#68=AXIS2_PLACEMENT_3D('',#65,#66,#67);
#69=PLANE('',#68);
#70=ADVANCED_FACE('',(#64),#69,.T.);
#71=CARTESIAN_POINT('',(-0.0215704773516,6.0,0.734972587216));
#72=VERTEX_POINT('',#71);
#73=CARTESIAN_POINT('',(-0.0215704773516,6.0,0.714972587216));
#74=DIRECTION('',(0.0,-1.0,0.0));
#75=DIRECTION('',(0.0,0.0,1.0));
#76=AXIS2_PLACEMENT_3D('',#73,#74,#75);
#77=CIRCLE('',#76,0.02);
#78=EDGE_CURVE('',#34,#72,#77,.T.);
#79=ORIENTED_EDGE('',*,*,#78,.T.);
#80=CARTESIAN_POINT('',(-0.0215704773516,0.0,0.734972587216));
#81=VERTEX_POINT('',#80);
#82=CARTESIAN_POINT('',(-0.0215704773516,0.0,0.734972587216));
#83=DIRECTION('',(0.0,1.0,-0.0));
#84=VECTOR('',#83,1.0);
#85=LINE('',#82,#84);
#86=EDGE_CURVE('',#81,#72,#85,.T.);
#87=ORIENTED_EDGE('',*,*,#86,.F.);
#88=CARTESIAN_POINT('',(-0.0215704773516,0.0,0.714972587216));
#89=DIRECTION('',(0.0,1.0,-0.0));
#90=DIRECTION('',(0.0,0.0,1.0));
#91=AXIS2_PLACEMENT_3D('',#88,#89,#90);
#92=CIRCLE('',#91,0.02);
#93=EDGE_CURVE('',#81,#42,#92,.T.);
#94=ORIENTED_EDGE('',*,*,#93,.T.);
#95=ORIENTED_EDGE('',*,*,#47,.T.);
#96=EDGE_LOOP('',(#79,#87,#94,#95));
#97=FACE_OUTER_BOUND('',#96,.T.);
#98=CARTESIAN_POINT('',(-0.0215704773516,0.0,0.714972587216));
#99=DIRECTION('',(0.0,1.0,-0.0));
#100=DIRECTION('',(-0.707106781187,-0.0,-0.707106781187));
#101=AXIS2_PLACEMENT_3D('',#98,#99,#100);
#102=CYLINDRICAL_SURFACE('',#101,0.02);
#103=ADVANCED_FACE('',(#97),#102,.T.);
#104=CARTESIAN_POINT('',(-0.0265704773516,6.0,0.734972587216));
#105=VERTEX_POINT('',#104);
#106=CARTESIAN_POINT('',(-0.0265704773516,6.0,0.734972587216));
#107=DIRECTION('',(-1.0,-0.0,-0.0));
#108=VECTOR('',#107,1.0);
#109=LINE('',#106,#108);
#110=EDGE_CURVE('',#72,#105,#109,.T.);
#111=ORIENTED_EDGE('',*,*,#110,.T.);
#112=CARTESIAN_POINT('',(-0.0265704773516,0.0,0.734972587216));
#113=VERTEX_POINT('',#112);
#114=CARTESIAN_POINT('',(-0.0265704773516,0.0,0.734972587216));
#115=DIRECTION('',(0.0,1.0,-0.0));
#116=VECTOR('',#115,1.0);
#117=LINE('',#114,#116);
#118=EDGE_CURVE('',#113,#105,#117,.T.);
#119=ORIENTED_EDGE('',*,*,#118,.F.);
#120=CARTESIAN_POINT('',(-0.0265704773516,0.0,0.734972587216));
#121=DIRECTION('',(1.0,0.0,0.0));
#122=VECTOR('',#121,1.0);
#123=LINE('',#120,#122);
#124=EDGE_CURVE('',#113,#81,#123,.T.);
#125=ORIENTED_EDGE('',*,*,#124,.T.);
#126=ORIENTED_EDGE('',*,*,#86,.T.);
#127=EDGE_LOOP('',(#111,#119,#125,#126));
#128=FACE_OUTER_BOUND('',#127,.T.);
#129=CARTESIAN_POINT('',(-0.0240704773516,0.0,0.734972587216));
#130=DIRECTION('',(-0.0,0.0,1.0));
#131=DIRECTION('',(1.0,0.0,0.0));
#132=AXIS2_PLACEMENT_3D('',#129,#130,#131);
#133=PLANE('',#132);
#134=ADVANCED_FACE('',(#128),#133,.T.);
#135=CARTESIAN_POINT('',(-0.0465704773516,6.0,0.714972587216));
#136=VERTEX_POINT('',#135);
#137=CARTESIAN_POINT('',(-0.0265704773516,6.0,0.714972587216));
#138=DIRECTION('',(0.0,-1.0,0.0));
#139=DIRECTION('',(0.0,0.0,1.0));
#140=AXIS2_PLACEMENT_3D('',#137,#138,#139);
#141=CIRCLE('',#140,0.02);
#142=EDGE_CURVE('',#105,#136,#141,.T.);
#143=ORIENTED_EDGE('',*,*,#142,.T.);
#144=CARTESIAN_POINT('',(-0.0465704773516,0.0,0.714972587216));
#145=VERTEX_POINT('',#144);
#146=CARTESIAN_POINT('',(-0.0465704773516,0.0,0.714972587216));
#147=DIRECTION('',(0.0,1.0,-0.0));
#148=VECTOR('',#147,1.0);
#149=LINE('',#146,#148);
#150=EDGE_CURVE('',#145,#136,#149,.T.);
#151=ORIENTED_EDGE('',*,*,#150,.F.);
#152=CARTESIAN_POINT('',(-0.0265704773516,0.0,0.714972587216));
#153=DIRECTION('',(0.0,1.0,-0.0));
#154=DIRECTION('',(0.0,0.0,1.0));
#155=AXIS2_PLACEMENT_3D('',#152,#153,#154);
#156=CIRCLE('',#155,0.02);
#157=EDGE_CURVE('',#145,#113,#156,.T.);
#158=ORIENTED_EDGE('',*,*,#157,.T.);
#159=ORIENTED_EDGE('',*,*,#118,.T.);
#160=EDGE_LOOP('',(#143,#151,#158,#159));
#161=FACE_OUTER_BOUND('',#160,.T.);
#162=CARTESIAN_POINT('',(-0.0265704773516,0.0,0.714972587216));
#163=DIRECTION('',(0.0,1.0,-0.0));
#164=DIRECTION('',(0.707106781187,-0.0,-0.707106781187));
#165=AXIS2_PLACEMENT_3D('',#162,#163,#164);
#166=CYLINDRICAL_SURFACE('',#165,0.02);
#167=ADVANCED_FACE('',(#161),#166,.T.);
#168=CARTESIAN_POINT('',(-0.0465704773516,6.0,0.0449725872159));
#169=VERTEX_POINT('',#168);
#170=CARTESIAN_POINT('',(-0.0465704773516,6.0,0.0449725872159));
#171=DIRECTION('',(-0.0,-0.0,-1.0));
#172=VECTOR('',#171,1.0);
#173=LINE('',#170,#172);
#174=EDGE_CURVE('',#136,#169,#173,.T.);
#175=ORIENTED_EDGE('',*,*,#174,.T.);
#176=CARTESIAN_POINT('',(-0.0465704773516,0.0,0.0449725872159));
#177=VERTEX_POINT('',#176);
#178=CARTESIAN_POINT('',(-0.0465704773516,0.0,0.0449725872159));
#179=DIRECTION('',(0.0,1.0,-0.0));
#180=VECTOR('',#179,1.0);
#181=LINE('',#178,#180);
#182=EDGE_CURVE('',#177,#169,#181,.T.);
#183=ORIENTED_EDGE('',*,*,#182,.F.);
#184=CARTESIAN_POINT('',(-0.0465704773516,0.0,0.0449725872159));
#185=DIRECTION('',(0.0,0.0,1.0));
#186=VECTOR('',#185,1.0);
#187=LINE('',#184,#186);
#188=EDGE_CURVE('',#177,#145,#187,.T.);
#189=ORIENTED_EDGE('',*,*,#188,.T.);
#190=ORIENTED_EDGE('',*,*,#150,.T.);
#191=EDGE_LOOP('',(#175,#183,#189,#190));
#192=FACE_OUTER_BOUND('',#191,.T.);
#193=CARTESIAN_POINT('',(-0.0465704773516,0.0,0.379972587216));
#194=DIRECTION('',(-1.0,0.0,0.0));
#195=DIRECTION('',(0.0,0.0,1.0));
#196=AXIS2_PLACEMENT_3D('',#193,#194,#195);
#197=PLANE('',#196);
#198=ADVANCED_FACE('',(#192),#197,.T.);
#199=CARTESIAN_POINT('',(-0.0,6.0,-0.0));
#200=VERTEX_POINT('',#199);
#201=CARTESIAN_POINT('',(-0.00157047735161,6.0,0.0449725872159));
#202=DIRECTION('',(0.0,-1.0,0.0));
#203=DIRECTION('',(1.0,0.0,0.0));
#204=AXIS2_PLACEMENT_3D('',#201,#202,#203);
#205=CIRCLE('',#204,0.045);
#206=EDGE_CURVE('',#169,#200,#205,.T.);
#207=ORIENTED_EDGE('',*,*,#206,.T.);
#208=CARTESIAN_POINT('',(-0.0,0.0,0.0));
#209=VERTEX_POINT('',#208);
#210=CARTESIAN_POINT('',(-0.0,0.0,0.0));
#211=DIRECTION('',(0.0,1.0,-0.0));
#212=VECTOR('',#211,1.0);
#213=LINE('',#210,#212);
#214=EDGE_CURVE('',#209,#200,#213,.T.);
#215=ORIENTED_EDGE('',*,*,#214,.F.);
#216=CARTESIAN_POINT('',(-0.00157047735161,0.0,0.0449725872159));
#217=DIRECTION('',(0.0,-1.0,0.0));
#218=DIRECTION('',(1.0,0.0,0.0));
#219=AXIS2_PLACEMENT_3D('',#216,#217,#218);
#220=CIRCLE('',#219,0.045);
#221=EDGE_CURVE('',#177,#209,#220,.T.);
#222=ORIENTED_EDGE('',*,*,#221,.F.);
#223=ORIENTED_EDGE('',*,*,#182,.T.);
#224=EDGE_LOOP('',(#207,#215,#222,#223));
#225=FACE_OUTER_BOUND('',#224,.T.);
#226=CARTESIAN_POINT('',(-0.00157047735161,0.0,0.0449725872159));
#227=DIRECTION('',(0.0,1.0,-0.0));
#228=DIRECTION('',(1.0,0.0,0.0));
#229=AXIS2_PLACEMENT_3D('',#226,#227,#228);
#230=CYLINDRICAL_SURFACE('',#229,0.045);
#231=ADVANCED_FACE('',(#225),#230,.T.);
#232=CARTESIAN_POINT('',(0.669591854103,6.0,0.0233826627907));
#233=VERTEX_POINT('',#232);
#234=CARTESIAN_POINT('',(0.0,6.0,-0.0));
#235=DIRECTION('',(0.999390827019,0.0,0.0348994967025));
#236=VECTOR('',#235,1.0);
#237=LINE('',#234,#236);
#238=EDGE_CURVE('',#200,#233,#237,.T.);
#239=ORIENTED_EDGE('',*,*,#238,.T.);
#240=CARTESIAN_POINT('',(0.669591854103,0.0,0.0233826627907));
#241=VERTEX_POINT('',#240);
#242=CARTESIAN_POINT('',(0.669591854103,0.0,0.0233826627907));
#243=DIRECTION('',(0.0,1.0,-0.0));
#244=VECTOR('',#243,1.0);
#245=LINE('',#242,#244);
#246=EDGE_CURVE('',#241,#233,#245,.T.);
#247=ORIENTED_EDGE('',*,*,#246,.F.);
#248=CARTESIAN_POINT('',(0.0,0.0,0.0));
#249=DIRECTION('',(0.999390827019,0.0,0.0348994967025));
#250=VECTOR('',#249,1.0);
#251=LINE('',#248,#250);
#252=EDGE_CURVE('',#209,#241,#251,.T.);
#253=ORIENTED_EDGE('',*,*,#252,.F.);
#254=ORIENTED_EDGE('',*,*,#214,.T.);
#255=EDGE_LOOP('',(#239,#247,#253,#254));
#256=FACE_OUTER_BOUND('',#255,.T.);
#257=CARTESIAN_POINT('',(0.334795927051,0.0,0.0116913313953));
#258=DIRECTION('',(0.0348994967025,-0.0,-0.999390827019));
#259=DIRECTION('',(-0.999390827019,-0.0,-0.0348994967025));
#260=AXIS2_PLACEMENT_3D('',#257,#258,#259);
#261=PLANE('',#260);
#262=ADVANCED_FACE('',(#256),#261,.T.);
#263=CARTESIAN_POINT('',(0.688881680709,6.0,0.0440684692651));
#264=VERTEX_POINT('',#263);
#265=CARTESIAN_POINT('',(0.668893864169,6.0,0.0433704793311));
#266=DIRECTION('',(0.0,-1.0,0.0));
#267=DIRECTION('',(-0.0348994967025,0.0,0.999390827019));
#268=AXIS2_PLACEMENT_3D('',#265,#266,#267);
#269=CIRCLE('',#268,0.02);
#270=EDGE_CURVE('',#233,#264,#269,.T.);
#271=ORIENTED_EDGE('',*,*,#270,.T.);
#272=CARTESIAN_POINT('',(0.688881680709,0.0,0.0440684692651));
#273=VERTEX_POINT('',#272);
#274=CARTESIAN_POINT('',(0.688881680709,0.0,0.0440684692651));
#275=DIRECTION('',(0.0,1.0,-0.0));
#276=VECTOR('',#275,1.0);
#277=LINE('',#274,#276);
#278=EDGE_CURVE('',#273,#264,#277,.T.);
#279=ORIENTED_EDGE('',*,*,#278,.F.);
#280=CARTESIAN_POINT('',(0.668893864169,0.0,0.0433704793311));
#281=DIRECTION('',(0.0,1.0,-0.0));
#282=DIRECTION('',(-0.0348994967025,0.0,0.999390827019));
#283=AXIS2_PLACEMENT_3D('',#280,#281,#282);
#284=CIRCLE('',#283,0.02);
#285=EDGE_CURVE('',#273,#241,#284,.T.);
#286=ORIENTED_EDGE('',*,*,#285,.T.);
#287=ORIENTED_EDGE('',*,*,#246,.T.);
#288=EDGE_LOOP('',(#271,#279,#286,#287));
#289=FACE_OUTER_BOUND('',#288,.T.);
#290=CARTESIAN_POINT('',(0.668893864169,0.0,0.0433704793311));
#291=DIRECTION('',(0.0,1.0,-0.0));
#292=DIRECTION('',(-0.0348994967025,0.0,0.999390827019));
#293=AXIS2_PLACEMENT_3D('',#290,#291,#292);
#294=CYLINDRICAL_SURFACE('',#293,0.02);
#295=ADVANCED_FACE('',(#289),#294,.T.);
#296=CARTESIAN_POINT('',(0.688707183226,6.0,0.0490654234002));
#297=VERTEX_POINT('',#296);
#298=CARTESIAN_POINT('',(0.688881680709,6.0,0.0440684692651));
#299=DIRECTION('',(-0.0348994967025,0.0,0.999390827019));
#300=VECTOR('',#299,1.0);
#301=LINE('',#298,#300);
#302=EDGE_CURVE('',#264,#297,#301,.T.);
#303=ORIENTED_EDGE('',*,*,#302,.T.);
#304=CARTESIAN_POINT('',(0.688707183226,0.0,0.0490654234002));
#305=VERTEX_POINT('',#304);
#306=CARTESIAN_POINT('',(0.688707183226,0.0,0.0490654234002));
#307=DIRECTION('',(0.0,1.0,-0.0));
#308=VECTOR('',#307,1.0);
#309=LINE('',#306,#308);
#310=EDGE_CURVE('',#305,#297,#309,.T.);
#311=ORIENTED_EDGE('',*,*,#310,.F.);
#312=CARTESIAN_POINT('',(0.688881680709,0.0,0.0440684692651));
#313=DIRECTION('',(-0.0348994967025,0.0,0.999390827019));
#314=VECTOR('',#313,1.0);
#315=LINE('',#312,#314);
#316=EDGE_CURVE('',#273,#305,#315,.T.);
#317=ORIENTED_EDGE('',*,*,#316,.F.);
#318=ORIENTED_EDGE('',*,*,#278,.T.);
#319=EDGE_LOOP('',(#303,#311,#317,#318));
#320=FACE_OUTER_BOUND('',#319,.T.);
#321=CARTESIAN_POINT('',(0.688794431967,0.0,0.0465669463327));
#322=DIRECTION('',(0.999390827019,0.0,0.0348994967025));
#323=DIRECTION('',(0.0348994967025,-0.0,-0.999390827019));
#324=AXIS2_PLACEMENT_3D('',#321,#322,#323);
#325=PLANE('',#324);
#326=ADVANCED_FACE('',(#320),#325,.T.);
#327=CARTESIAN_POINT('',(0.668021376751,6.0,0.0683552500065));
#328=VERTEX_POINT('',#327);
#329=CARTESIAN_POINT('',(0.668719366685,6.0,0.0483674334662));
#330=DIRECTION('',(0.0,-1.0,0.0));
#331=DIRECTION('',(0.999390827019,0.0,0.0348994967025));
#332=AXIS2_PLACEMENT_3D('',#329,#330,#331);
#333=CIRCLE('',#332,0.02);
#334=EDGE_CURVE('',#297,#328,#333,.T.);
#335=ORIENTED_EDGE('',*,*,#334,.T.);
#336=CARTESIAN_POINT('',(0.668021376751,0.0,0.0683552500065));
#337=VERTEX_POINT('',#336);
#338=CARTESIAN_POINT('',(0.668021376751,0.0,0.0683552500065));
#339=DIRECTION('',(0.0,1.0,-0.0));
#340=VECTOR('',#339,1.0);
#341=LINE('',#338,#340);
#342=EDGE_CURVE('',#337,#328,#341,.T.);
#343=ORIENTED_EDGE('',*,*,#342,.F.);
#344=CARTESIAN_POINT('',(0.668719366685,0.0,0.0483674334662));
#345=DIRECTION('',(0.0,-1.0,0.0));
#346=DIRECTION('',(0.999390827019,0.0,0.0348994967025));
#347=AXIS2_PLACEMENT_3D('',#344,#345,#346);
#348=CIRCLE('',#347,0.02);
#349=EDGE_CURVE('',#305,#337,#348,.T.);
#350=ORIENTED_EDGE('',*,*,#349,.F.);
#351=ORIENTED_EDGE('',*,*,#310,.T.);
#352=EDGE_LOOP('',(#335,#343,#350,#351));
#353=FACE_OUTER_BOUND('',#352,.T.);
#354=CARTESIAN_POINT('',(0.668719366685,0.0,0.0483674334662));
#355=DIRECTION('',(0.0,1.0,-0.0));
#356=DIRECTION('',(-0.681998360062,-0.0,-0.731353701619));
#357=AXIS2_PLACEMENT_3D('',#354,#355,#356);
#358=CYLINDRICAL_SURFACE('',#357,0.02);
#359=ADVANCED_FACE('',(#353),#358,.T.);
#360=CARTESIAN_POINT('',(-0.00157047735161,6.0,0.0449725872159));
#361=DIRECTION('',(-0.999390827019,-0.0,-0.0348994967025));
#362=VECTOR('',#361,1.0);
#363=LINE('',#360,#362);
#364=EDGE_CURVE('',#328,#32,#363,.T.);
#365=ORIENTED_EDGE('',*,*,#364,.T.);
#366=ORIENTED_EDGE('',*,*,#61,.F.);
#367=CARTESIAN_POINT('',(-0.00157047735161,0.0,0.0449725872159));
#368=DIRECTION('',(0.999390827019,0.0,0.0348994967025));
#369=VECTOR('',#368,1.0);
#370=LINE('',#367,#369);
#371=EDGE_CURVE('',#50,#337,#370,.T.);
#372=ORIENTED_EDGE('',*,*,#371,.T.);
#373=ORIENTED_EDGE('',*,*,#342,.T.);
#374=EDGE_LOOP('',(#365,#366,#372,#373));
#375=FACE_OUTER_BOUND('',#374,.T.);
#376=CARTESIAN_POINT('',(0.333225449700,0.0,0.0566639186112));
#377=DIRECTION('',(-0.0348994967025,0.0,0.999390827019));
#378=DIRECTION('',(0.999390827019,0.0,0.0348994967025));
#379=AXIS2_PLACEMENT_3D('',#376,#377,#378);
#380=PLANE('',#379);
#381=ADVANCED_FACE('',(#375),#380,.T.);
#382=ORIENTED_EDGE('',*,*,#39,.F.);
#383=ORIENTED_EDGE('',*,*,#364,.F.);
#384=ORIENTED_EDGE('',*,*,#334,.F.);
#385=ORIENTED_EDGE('',*,*,#302,.F.);
#386=ORIENTED_EDGE('',*,*,#270,.F.);
#387=ORIENTED_EDGE('',*,*,#238,.F.);
#388=ORIENTED_EDGE('',*,*,#206,.F.);
#389=ORIENTED_EDGE('',*,*,#174,.F.);
#390=ORIENTED_EDGE('',*,*,#142,.F.);
#391=ORIENTED_EDGE('',*,*,#110,.F.);
#392=ORIENTED_EDGE('',*,*,#78,.F.);
#393=EDGE_LOOP('',(#382,#383,#384,#385,#386,#387,#388,#389,#390,#391,#392));
#394=FACE_OUTER_BOUND('',#393,.T.);
#395=CARTESIAN_POINT('',(0.207559798481,6.0,0.0522755773720));
#396=DIRECTION('',(0.0,-1.0,0.0));
#397=DIRECTION('',(1.0,0.0,0.0));
#398=AXIS2_PLACEMENT_3D('',#395,#396,#397);
#399=PLANE('',#398);
#400=ADVANCED_FACE('',(#394),#399,.F.);
#401=ORIENTED_EDGE('',*,*,#371,.F.);
#402=ORIENTED_EDGE('',*,*,#55,.T.);
#403=ORIENTED_EDGE('',*,*,#93,.F.);
#404=ORIENTED_EDGE('',*,*,#124,.F.);
#405=ORIENTED_EDGE('',*,*,#157,.F.);
#406=ORIENTED_EDGE('',*,*,#188,.F.);
#407=ORIENTED_EDGE('',*,*,#221,.T.);
#408=ORIENTED_EDGE('',*,*,#252,.T.);
#409=ORIENTED_EDGE('',*,*,#285,.F.);
#410=ORIENTED_EDGE('',*,*,#316,.T.);
#411=ORIENTED_EDGE('',*,*,#349,.T.);
#412=EDGE_LOOP('',(#401,#402,#403,#404,#405,#406,#407,#408,#409,#410,#411));
#413=FACE_OUTER_BOUND('',#412,.T.);
#414=CARTESIAN_POINT('',(0.207559798481,0.0,0.0522755773720));
#415=DIRECTION('',(0.0,-1.0,0.0));
#416=DIRECTION('',(1.0,0.0,0.0));
#417=AXIS2_PLACEMENT_3D('',#414,#415,#416);
#418=PLANE('',#417);
#419=ADVANCED_FACE('',(#413),#418,.T.);
#420=CLOSED_SHELL('',(#70,#103,#134,#167,#198,#231,#262,#295,#326,#359,#381,#400,#419));
#421=MANIFOLD_SOLID_BREP('',#420);
#422=COLOUR_RGB('',1.0,0.0,0.0);
#423=FILL_AREA_STYLE_COLOUR('',#422);
#424=FILL_AREA_STYLE('',(#423));
#425=SURFACE_STYLE_FILL_AREA(#424);
#426=SURFACE_SIDE_STYLE('',(#425));
#427=SURFACE_STYLE_USAGE(.BOTH.,#426);
#428=PRESENTATION_STYLE_ASSIGNMENT((#427));
#429=STYLED_ITEM('',(#428),#421);
#430=ADVANCED_BREP_SHAPE_REPRESENTATION('',(#421,#23),#18);
#431=SHAPE_DEFINITION_REPRESENTATION(#30,#430);
#432=DERIVED_UNIT_ELEMENT(#12,3.0);
#433=VOLUME_UNIT((#432));
#434=NAME_ATTRIBUTE('CUBIC MILLIMETRE',#433);
#435=DERIVED_UNIT_ELEMENT(#12,2.0);
#436=AREA_UNIT((#435));
#437=NAME_ATTRIBUTE('SQUARE MILLIMETRE',#436);
#438=SHAPE_ASPECT('#438','solid #421',#30,.F.);
#439=GEOMETRIC_ITEM_SPECIFIC_USAGE('Shape for Validation Properties','',#438,#430,#421);
#440=MEASURE_REPRESENTATION_ITEM('volume measure',VOLUME_MEASURE(0.38022163647421),#433);
#441=REPRESENTATION('volume',(#440),#18);
#442=PROPERTY_DEFINITION('volume of #421','geometric validation property',#438);
#443=PROPERTY_DEFINITION_REPRESENTATION(#442,#441);
#444=MEASURE_REPRESENTATION_ITEM('surface area measure',AREA_MEASURE(17.4530220558546),#436);
#445=REPRESENTATION('surface area',(#444),#18);
#446=PROPERTY_DEFINITION('area of #421','geometric validation property',#438);
#447=PROPERTY_DEFINITION_REPRESENTATION(#446,#445);
#448=CARTESIAN_POINT('centre point',(0.154428874869,3.0,0.206514645372));
#449=REPRESENTATION('centroid',(#448),#18);
#450=PROPERTY_DEFINITION('centroid of #421','geometric validation property',#438);
#451=PROPERTY_DEFINITION_REPRESENTATION(#450,#449);
#452=CARTESIAN_POINT('bounding box corner point',(-0.0465704773516,-0.0,-2.74127841408E-05));
#453=CARTESIAN_POINT('bounding box corner point',(0.688893864169,6.0,0.734972587216));
#454=REPRESENTATION('bounding box',(#452,#453),#18);
#455=PROPERTY_DEFINITION('bounding box of #421','geometric validation property',#438);
#456=PROPERTY_DEFINITION_REPRESENTATION(#455,#454);
#457=PRESENTATION_LAYER_ASSIGNMENT('1','Unnamed [1]',(#421));
ENDSEC;
END-ISO-10303-21;
