ISO-10303-21;
HEADER;
FILE_DESCRIPTION(('', 'CAx-IF Rec.Pracs.---Representation and Presentation of Product Manufacturing Information (PMI)---4.0---2014-10-13'),'2;1');
FILE_NAME('SG2684.STP', '2024-11-05T13:36:30',(''), (''), 'Kubotek Kosmos 3D Framework Version 6.0.14858.14858', 'Kubotek Kosmos 3D Framework', '');
FILE_SCHEMA(('AP242_MANAGED_MODEL_BASED_3D_ENGINEERING_MIM_LF  { 1 0 10303 442 4 1 4 }'));
ENDSEC;
DATA;
#1=PRODUCT_DEFINITION_CONTEXT('',#4,'design');
#2=PRODUCT_CONTEXT('',#4,'mechanical');
#3=APPLICATION_PROTOCOL_DEFINITION('international standard','ap242_managed_model_based_3d_engineering',2011,#4);
#4=APPLICATION_CONTEXT('managed model based 3d engineering');
#10=DIMENSIONAL_EXPONENTS(1.0,0.0,0.0,0.0,0.0,0.0,0.0);
#11=DIMENSIONAL_EXPONENTS(0.0,0.0,0.0,0.0,0.0,0.0,0.0);
#12=(LENGTH_UNIT()NAMED_UNIT(*)SI_UNIT(.MILLI.,.METRE.));
#13=(NAMED_UNIT(*)PLANE_ANGLE_UNIT()SI_UNIT($,.RADIAN.));
#14=(NAMED_UNIT(*)SI_UNIT($,.STERADIAN.)SOLID_ANGLE_UNIT());
#15=LENGTH_MEASURE_WITH_UNIT(LENGTH_MEASURE(25.4),#12);
#16=(CONVERSION_BASED_UNIT('INCH',#15)LENGTH_UNIT()NAMED_UNIT(#10));
#17=UNCERTAINTY_MEASURE_WITH_UNIT(LENGTH_MEASURE(1.0E-006),#16,'','');
#18=(GEOMETRIC_REPRESENTATION_CONTEXT(3)GLOBAL_UNCERTAINTY_ASSIGNED_CONTEXT((#17))GLOBAL_UNIT_ASSIGNED_CONTEXT((#16,#13,#14))REPRESENTATION_CONTEXT('NONE','WORKSPACE'));
#20=CARTESIAN_POINT('',(0.0,0.0,0.0));
#21=DIRECTION('',(0.0,0.0,1.0));
#22=DIRECTION('',(1.0,0.0,0.0));
#23=AXIS2_PLACEMENT_3D('',#20,#21,#22);
#24=PRODUCT('','','',(#2));
#25=PRODUCT_DEFINITION_FORMATION_WITH_SPECIFIED_SOURCE('','',#24,.NOT_KNOWN.);
#26=PRODUCT_CATEGORY('Part','');
#27=PRODUCT_RELATED_PRODUCT_CATEGORY('detail','',(#24));
#28=PRODUCT_CATEGORY_RELATIONSHIP('','',#26,#27);
#29=PRODUCT_DEFINITION('','',#25,#1);
#30=PRODUCT_DEFINITION_SHAPE('NONE','NONE',#29);
#31=CARTESIAN_POINT('',(-0.387500000000,6.0,0.0450000000000));
#32=VERTEX_POINT('',#31);
#33=CARTESIAN_POINT('',(-0.342500000000,6.0,-0.0));
#34=VERTEX_POINT('',#33);
#35=CARTESIAN_POINT('',(-0.342500000000,6.0,0.0450000000000));
#36=DIRECTION('',(0.0,-1.0,0.0));
#37=DIRECTION('',(0.0,0.0,1.0));
#38=AXIS2_PLACEMENT_3D('',#35,#36,#37);
#39=CIRCLE('',#38,0.045);
#40=EDGE_CURVE('',#32,#34,#39,.T.);
#41=ORIENTED_EDGE('',*,*,#40,.T.);
#42=CARTESIAN_POINT('',(-0.342500000000,0.0,-0.0));
#43=VERTEX_POINT('',#42);
#44=CARTESIAN_POINT('',(-0.342500000000,0.0,-0.0));
#45=DIRECTION('',(0.0,1.0,-0.0));
#46=VECTOR('',#45,1.0);
#47=LINE('',#44,#46);
#48=EDGE_CURVE('',#43,#34,#47,.T.);
#49=ORIENTED_EDGE('',*,*,#48,.F.);
#50=CARTESIAN_POINT('',(-0.387500000000,0.0,0.0450000000000));
#51=VERTEX_POINT('',#50);
#52=CARTESIAN_POINT('',(-0.342500000000,0.0,0.0450000000000));
#53=DIRECTION('',(0.0,1.0,-0.0));
#54=DIRECTION('',(0.0,0.0,1.0));
#55=AXIS2_PLACEMENT_3D('',#52,#53,#54);
#56=CIRCLE('',#55,0.045);
#57=EDGE_CURVE('',#43,#51,#56,.T.);
#58=ORIENTED_EDGE('',*,*,#57,.T.);
#59=CARTESIAN_POINT('',(-0.387500000000,0.0,0.0450000000000));
#60=DIRECTION('',(0.0,1.0,-0.0));
#61=VECTOR('',#60,1.0);
#62=LINE('',#59,#61);
#63=EDGE_CURVE('',#51,#32,#62,.T.);
#64=ORIENTED_EDGE('',*,*,#63,.T.);
#65=EDGE_LOOP('',(#41,#49,#58,#64));
#66=FACE_OUTER_BOUND('',#65,.T.);
#67=CARTESIAN_POINT('',(-0.342500000000,0.0,0.0450000000000));
#68=DIRECTION('',(0.0,1.0,-0.0));
#69=DIRECTION('',(0.0,0.0,1.0));
#70=AXIS2_PLACEMENT_3D('',#67,#68,#69);
#71=CYLINDRICAL_SURFACE('',#70,0.045);
#72=ADVANCED_FACE('',(#66),#71,.T.);
#73=CARTESIAN_POINT('',(0.342500000000,6.0,-0.0));
#74=VERTEX_POINT('',#73);
#75=CARTESIAN_POINT('',(-0.342500000000,6.0,-0.0));
#76=DIRECTION('',(1.0,0.0,0.0));
#77=VECTOR('',#76,1.0);
#78=LINE('',#75,#77);
#79=EDGE_CURVE('',#34,#74,#78,.T.);
#80=ORIENTED_EDGE('',*,*,#79,.T.);
#81=CARTESIAN_POINT('',(0.342500000000,0.0,0.0));
#82=VERTEX_POINT('',#81);
#83=CARTESIAN_POINT('',(0.342500000000,0.0,0.0));
#84=DIRECTION('',(0.0,1.0,-0.0));
#85=VECTOR('',#84,1.0);
#86=LINE('',#83,#85);
#87=EDGE_CURVE('',#82,#74,#86,.T.);
#88=ORIENTED_EDGE('',*,*,#87,.F.);
#89=CARTESIAN_POINT('',(-0.342500000000,0.0,0.0));
#90=DIRECTION('',(1.0,0.0,0.0));
#91=VECTOR('',#90,1.0);
#92=LINE('',#89,#91);
#93=EDGE_CURVE('',#43,#82,#92,.T.);
#94=ORIENTED_EDGE('',*,*,#93,.F.);
#95=ORIENTED_EDGE('',*,*,#48,.T.);
#96=EDGE_LOOP('',(#80,#88,#94,#95));
#97=FACE_OUTER_BOUND('',#96,.T.);
#98=CARTESIAN_POINT('',(0.0,0.0,0.0));
#99=DIRECTION('',(0.0,-0.0,-1.0));
#100=DIRECTION('',(-1.0,-0.0,-0.0));
#101=AXIS2_PLACEMENT_3D('',#98,#99,#100);
#102=PLANE('',#101);
#103=ADVANCED_FACE('',(#97),#102,.T.);
#104=CARTESIAN_POINT('',(0.362500000000,6.0,0.0200000000000));
#105=VERTEX_POINT('',#104);
#106=CARTESIAN_POINT('',(0.342500000000,6.0,0.0200000000000));
#107=DIRECTION('',(0.0,-1.0,0.0));
#108=DIRECTION('',(1.0,0.0,0.0));
#109=AXIS2_PLACEMENT_3D('',#106,#107,#108);
#110=CIRCLE('',#109,0.02);
#111=EDGE_CURVE('',#74,#105,#110,.T.);
#112=ORIENTED_EDGE('',*,*,#111,.T.);
#113=CARTESIAN_POINT('',(0.362500000000,0.0,0.0200000000000));
#114=VERTEX_POINT('',#113);
#115=CARTESIAN_POINT('',(0.362500000000,0.0,0.0200000000000));
#116=DIRECTION('',(0.0,1.0,-0.0));
#117=VECTOR('',#116,1.0);
#118=LINE('',#115,#117);
#119=EDGE_CURVE('',#114,#105,#118,.T.);
#120=ORIENTED_EDGE('',*,*,#119,.F.);
#121=CARTESIAN_POINT('',(0.342500000000,0.0,0.0200000000000));
#122=DIRECTION('',(0.0,-1.0,0.0));
#123=DIRECTION('',(1.0,0.0,0.0));
#124=AXIS2_PLACEMENT_3D('',#121,#122,#123);
#125=CIRCLE('',#124,0.02);
#126=EDGE_CURVE('',#82,#114,#125,.T.);
#127=ORIENTED_EDGE('',*,*,#126,.F.);
#128=ORIENTED_EDGE('',*,*,#87,.T.);
#129=EDGE_LOOP('',(#112,#120,#127,#128));
#130=FACE_OUTER_BOUND('',#129,.T.);
#131=CARTESIAN_POINT('',(0.342500000000,0.0,0.0200000000000));
#132=DIRECTION('',(0.0,1.0,-0.0));
#133=DIRECTION('',(-0.707106781187,0.0,0.707106781187));
#134=AXIS2_PLACEMENT_3D('',#131,#132,#133);
#135=CYLINDRICAL_SURFACE('',#134,0.02);
#136=ADVANCED_FACE('',(#130),#135,.T.);
#137=CARTESIAN_POINT('',(0.362500000000,6.0,0.0250000000000));
#138=VERTEX_POINT('',#137);
#139=CARTESIAN_POINT('',(0.362500000000,6.0,0.0200000000000));
#140=DIRECTION('',(0.0,0.0,1.0));
#141=VECTOR('',#140,1.0);
#142=LINE('',#139,#141);
#143=EDGE_CURVE('',#105,#138,#142,.T.);
#144=ORIENTED_EDGE('',*,*,#143,.T.);
#145=CARTESIAN_POINT('',(0.362500000000,0.0,0.0250000000000));
#146=VERTEX_POINT('',#145);
#147=CARTESIAN_POINT('',(0.362500000000,0.0,0.0250000000000));
#148=DIRECTION('',(0.0,1.0,-0.0));
#149=VECTOR('',#148,1.0);
#150=LINE('',#147,#149);
#151=EDGE_CURVE('',#146,#138,#150,.T.);
#152=ORIENTED_EDGE('',*,*,#151,.F.);
#153=CARTESIAN_POINT('',(0.362500000000,0.0,0.0200000000000));
#154=DIRECTION('',(0.0,0.0,1.0));
#155=VECTOR('',#154,1.0);
#156=LINE('',#153,#155);
#157=EDGE_CURVE('',#114,#146,#156,.T.);
#158=ORIENTED_EDGE('',*,*,#157,.F.);
#159=ORIENTED_EDGE('',*,*,#119,.T.);
#160=EDGE_LOOP('',(#144,#152,#158,#159));
#161=FACE_OUTER_BOUND('',#160,.T.);
#162=CARTESIAN_POINT('',(0.362500000000,0.0,0.0225000000000));
#163=DIRECTION('',(1.0,-0.0,0.0));
#164=DIRECTION('',(-0.0,-0.0,-1.0));
#165=AXIS2_PLACEMENT_3D('',#162,#163,#164);
#166=PLANE('',#165);
#167=ADVANCED_FACE('',(#161),#166,.T.);
#168=CARTESIAN_POINT('',(0.342500000000,6.0,0.0450000000000));
#169=VERTEX_POINT('',#168);
#170=CARTESIAN_POINT('',(0.342500000000,6.0,0.0250000000000));
#171=DIRECTION('',(0.0,-1.0,0.0));
#172=DIRECTION('',(1.0,0.0,0.0));
#173=AXIS2_PLACEMENT_3D('',#170,#171,#172);
#174=CIRCLE('',#173,0.02);
#175=EDGE_CURVE('',#138,#169,#174,.T.);
#176=ORIENTED_EDGE('',*,*,#175,.T.);
#177=CARTESIAN_POINT('',(0.342500000000,0.0,0.0450000000000));
#178=VERTEX_POINT('',#177);
#179=CARTESIAN_POINT('',(0.342500000000,0.0,0.0450000000000));
#180=DIRECTION('',(0.0,1.0,-0.0));
#181=VECTOR('',#180,1.0);
#182=LINE('',#179,#181);
#183=EDGE_CURVE('',#178,#169,#182,.T.);
#184=ORIENTED_EDGE('',*,*,#183,.F.);
#185=CARTESIAN_POINT('',(0.342500000000,0.0,0.0250000000000));
#186=DIRECTION('',(0.0,-1.0,0.0));
#187=DIRECTION('',(1.0,0.0,0.0));
#188=AXIS2_PLACEMENT_3D('',#185,#186,#187);
#189=CIRCLE('',#188,0.02);
#190=EDGE_CURVE('',#146,#178,#189,.T.);
#191=ORIENTED_EDGE('',*,*,#190,.F.);
#192=ORIENTED_EDGE('',*,*,#151,.T.);
#193=EDGE_LOOP('',(#176,#184,#191,#192));
#194=FACE_OUTER_BOUND('',#193,.T.);
#195=CARTESIAN_POINT('',(0.342500000000,0.0,0.0250000000000));
#196=DIRECTION('',(0.0,1.0,-0.0));
#197=DIRECTION('',(-0.707106781187,-0.0,-0.707106781187));
#198=AXIS2_PLACEMENT_3D('',#195,#196,#197);
#199=CYLINDRICAL_SURFACE('',#198,0.02);
#200=ADVANCED_FACE('',(#194),#199,.T.);
#201=CARTESIAN_POINT('',(-0.342500000000,6.0,0.0450000000000));
#202=VERTEX_POINT('',#201);
#203=CARTESIAN_POINT('',(-0.342500000000,6.0,0.0450000000000));
#204=DIRECTION('',(-1.0,-0.0,-0.0));
#205=VECTOR('',#204,1.0);
#206=LINE('',#203,#205);
#207=EDGE_CURVE('',#169,#202,#206,.T.);
#208=ORIENTED_EDGE('',*,*,#207,.T.);
#209=CARTESIAN_POINT('',(-0.342500000000,0.0,0.0450000000000));
#210=VERTEX_POINT('',#209);
#211=CARTESIAN_POINT('',(-0.342500000000,0.0,0.0450000000000));
#212=DIRECTION('',(0.0,1.0,-0.0));
#213=VECTOR('',#212,1.0);
#214=LINE('',#211,#213);
#215=EDGE_CURVE('',#210,#202,#214,.T.);
#216=ORIENTED_EDGE('',*,*,#215,.F.);
#217=CARTESIAN_POINT('',(-0.342500000000,0.0,0.0450000000000));
#218=DIRECTION('',(1.0,0.0,0.0));
#219=VECTOR('',#218,1.0);
#220=LINE('',#217,#219);
#221=EDGE_CURVE('',#210,#178,#220,.T.);
#222=ORIENTED_EDGE('',*,*,#221,.T.);
#223=ORIENTED_EDGE('',*,*,#183,.T.);
#224=EDGE_LOOP('',(#208,#216,#222,#223));
#225=FACE_OUTER_BOUND('',#224,.T.);
#226=CARTESIAN_POINT('',(0.0,0.0,0.0450000000000));
#227=DIRECTION('',(-0.0,0.0,1.0));
#228=DIRECTION('',(1.0,0.0,0.0));
#229=AXIS2_PLACEMENT_3D('',#226,#227,#228);
#230=PLANE('',#229);
#231=ADVANCED_FACE('',(#225),#230,.T.);
#232=CARTESIAN_POINT('',(-0.342500000000,6.0,0.730000000000));
#233=VERTEX_POINT('',#232);
#234=CARTESIAN_POINT('',(-0.342500000000,6.0,0.0450000000000));
#235=DIRECTION('',(0.0,0.0,1.0));
#236=VECTOR('',#235,1.0);
#237=LINE('',#234,#236);
#238=EDGE_CURVE('',#202,#233,#237,.T.);
#239=ORIENTED_EDGE('',*,*,#238,.T.);
#240=CARTESIAN_POINT('',(-0.342500000000,0.0,0.730000000000));
#241=VERTEX_POINT('',#240);
#242=CARTESIAN_POINT('',(-0.342500000000,0.0,0.730000000000));
#243=DIRECTION('',(0.0,1.0,-0.0));
#244=VECTOR('',#243,1.0);
#245=LINE('',#242,#244);
#246=EDGE_CURVE('',#241,#233,#245,.T.);
#247=ORIENTED_EDGE('',*,*,#246,.F.);
#248=CARTESIAN_POINT('',(-0.342500000000,0.0,0.0450000000000));
#249=DIRECTION('',(0.0,0.0,1.0));
#250=VECTOR('',#249,1.0);
#251=LINE('',#248,#250);
#252=EDGE_CURVE('',#210,#241,#251,.T.);
#253=ORIENTED_EDGE('',*,*,#252,.F.);
#254=ORIENTED_EDGE('',*,*,#215,.T.);
#255=EDGE_LOOP('',(#239,#247,#253,#254));
#256=FACE_OUTER_BOUND('',#255,.T.);
#257=CARTESIAN_POINT('',(-0.342500000000,0.0,0.387500000000));
#258=DIRECTION('',(1.0,-0.0,0.0));
#259=DIRECTION('',(-0.0,-0.0,-1.0));
#260=AXIS2_PLACEMENT_3D('',#257,#258,#259);
#261=PLANE('',#260);
#262=ADVANCED_FACE('',(#256),#261,.T.);
#263=CARTESIAN_POINT('',(-0.362500000000,6.0,0.750000000000));
#264=VERTEX_POINT('',#263);
#265=CARTESIAN_POINT('',(-0.362500000000,6.0,0.730000000000));
#266=DIRECTION('',(0.0,-1.0,0.0));
#267=DIRECTION('',(0.0,0.0,1.0));
#268=AXIS2_PLACEMENT_3D('',#265,#266,#267);
#269=CIRCLE('',#268,0.02);
#270=EDGE_CURVE('',#233,#264,#269,.T.);
#271=ORIENTED_EDGE('',*,*,#270,.T.);
#272=CARTESIAN_POINT('',(-0.362500000000,0.0,0.750000000000));
#273=VERTEX_POINT('',#272);
#274=CARTESIAN_POINT('',(-0.362500000000,0.0,0.750000000000));
#275=DIRECTION('',(0.0,1.0,-0.0));
#276=VECTOR('',#275,1.0);
#277=LINE('',#274,#276);
#278=EDGE_CURVE('',#273,#264,#277,.T.);
#279=ORIENTED_EDGE('',*,*,#278,.F.);
#280=CARTESIAN_POINT('',(-0.362500000000,0.0,0.730000000000));
#281=DIRECTION('',(0.0,1.0,-0.0));
#282=DIRECTION('',(0.0,0.0,1.0));
#283=AXIS2_PLACEMENT_3D('',#280,#281,#282);
#284=CIRCLE('',#283,0.02);
#285=EDGE_CURVE('',#273,#241,#284,.T.);
#286=ORIENTED_EDGE('',*,*,#285,.T.);
#287=ORIENTED_EDGE('',*,*,#246,.T.);
#288=EDGE_LOOP('',(#271,#279,#286,#287));
#289=FACE_OUTER_BOUND('',#288,.T.);
#290=CARTESIAN_POINT('',(-0.362500000000,0.0,0.730000000000));
#291=DIRECTION('',(0.0,1.0,-0.0));
#292=DIRECTION('',(-0.707106781187,-0.0,-0.707106781187));
#293=AXIS2_PLACEMENT_3D('',#290,#291,#292);
#294=CYLINDRICAL_SURFACE('',#293,0.02);
#295=ADVANCED_FACE('',(#289),#294,.T.);
#296=CARTESIAN_POINT('',(-0.367500000000,6.0,0.750000000000));
#297=VERTEX_POINT('',#296);
#298=CARTESIAN_POINT('',(-0.367500000000,6.0,0.750000000000));
#299=DIRECTION('',(-1.0,-0.0,-0.0));
#300=VECTOR('',#299,1.0);
#301=LINE('',#298,#300);
#302=EDGE_CURVE('',#264,#297,#301,.T.);
#303=ORIENTED_EDGE('',*,*,#302,.T.);
#304=CARTESIAN_POINT('',(-0.367500000000,0.0,0.750000000000));
#305=VERTEX_POINT('',#304);
#306=CARTESIAN_POINT('',(-0.367500000000,0.0,0.750000000000));
#307=DIRECTION('',(0.0,1.0,-0.0));
#308=VECTOR('',#307,1.0);
#309=LINE('',#306,#308);
#310=EDGE_CURVE('',#305,#297,#309,.T.);
#311=ORIENTED_EDGE('',*,*,#310,.F.);
#312=CARTESIAN_POINT('',(-0.367500000000,0.0,0.750000000000));
#313=DIRECTION('',(1.0,0.0,0.0));
#314=VECTOR('',#313,1.0);
#315=LINE('',#312,#314);
#316=EDGE_CURVE('',#305,#273,#315,.T.);
#317=ORIENTED_EDGE('',*,*,#316,.T.);
#318=ORIENTED_EDGE('',*,*,#278,.T.);
#319=EDGE_LOOP('',(#303,#311,#317,#318));
#320=FACE_OUTER_BOUND('',#319,.T.);
#321=CARTESIAN_POINT('',(-0.365000000000,0.0,0.750000000000));
#322=DIRECTION('',(-0.0,0.0,1.0));
#323=DIRECTION('',(1.0,0.0,0.0));
#324=AXIS2_PLACEMENT_3D('',#321,#322,#323);
#325=PLANE('',#324);
#326=ADVANCED_FACE('',(#320),#325,.T.);
#327=CARTESIAN_POINT('',(-0.387500000000,6.0,0.730000000000));
#328=VERTEX_POINT('',#327);
#329=CARTESIAN_POINT('',(-0.367500000000,6.0,0.730000000000));
#330=DIRECTION('',(0.0,-1.0,0.0));
#331=DIRECTION('',(0.0,0.0,1.0));
#332=AXIS2_PLACEMENT_3D('',#329,#330,#331);
#333=CIRCLE('',#332,0.02);
#334=EDGE_CURVE('',#297,#328,#333,.T.);
#335=ORIENTED_EDGE('',*,*,#334,.T.);
#336=CARTESIAN_POINT('',(-0.387500000000,0.0,0.730000000000));
#337=VERTEX_POINT('',#336);
#338=CARTESIAN_POINT('',(-0.387500000000,0.0,0.730000000000));
#339=DIRECTION('',(0.0,1.0,-0.0));
#340=VECTOR('',#339,1.0);
#341=LINE('',#338,#340);
#342=EDGE_CURVE('',#337,#328,#341,.T.);
#343=ORIENTED_EDGE('',*,*,#342,.F.);
#344=CARTESIAN_POINT('',(-0.367500000000,0.0,0.730000000000));
#345=DIRECTION('',(0.0,1.0,-0.0));
#346=DIRECTION('',(0.0,0.0,1.0));
#347=AXIS2_PLACEMENT_3D('',#344,#345,#346);
#348=CIRCLE('',#347,0.02);
#349=EDGE_CURVE('',#337,#305,#348,.T.);
#350=ORIENTED_EDGE('',*,*,#349,.T.);
#351=ORIENTED_EDGE('',*,*,#310,.T.);
#352=EDGE_LOOP('',(#335,#343,#350,#351));
#353=FACE_OUTER_BOUND('',#352,.T.);
#354=CARTESIAN_POINT('',(-0.367500000000,0.0,0.730000000000));
#355=DIRECTION('',(0.0,1.0,-0.0));
#356=DIRECTION('',(0.707106781187,-0.0,-0.707106781187));
#357=AXIS2_PLACEMENT_3D('',#354,#355,#356);
#358=CYLINDRICAL_SURFACE('',#357,0.02);
#359=ADVANCED_FACE('',(#353),#358,.T.);
#360=CARTESIAN_POINT('',(-0.387500000000,6.0,0.0450000000000));
#361=DIRECTION('',(-0.0,-0.0,-1.0));
#362=VECTOR('',#361,1.0);
#363=LINE('',#360,#362);
#364=EDGE_CURVE('',#328,#32,#363,.T.);
#365=ORIENTED_EDGE('',*,*,#364,.T.);
#366=ORIENTED_EDGE('',*,*,#63,.F.);
#367=CARTESIAN_POINT('',(-0.387500000000,0.0,0.0450000000000));
#368=DIRECTION('',(0.0,0.0,1.0));
#369=VECTOR('',#368,1.0);
#370=LINE('',#367,#369);
#371=EDGE_CURVE('',#51,#337,#370,.T.);
#372=ORIENTED_EDGE('',*,*,#371,.T.);
#373=ORIENTED_EDGE('',*,*,#342,.T.);
#374=EDGE_LOOP('',(#365,#366,#372,#373));
#375=FACE_OUTER_BOUND('',#374,.T.);
#376=CARTESIAN_POINT('',(-0.387500000000,0.0,0.387500000000));
#377=DIRECTION('',(-1.0,0.0,0.0));
#378=DIRECTION('',(0.0,0.0,1.0));
#379=AXIS2_PLACEMENT_3D('',#376,#377,#378);
#380=PLANE('',#379);
#381=ADVANCED_FACE('',(#375),#380,.T.);
#382=ORIENTED_EDGE('',*,*,#40,.F.);
#383=ORIENTED_EDGE('',*,*,#364,.F.);
#384=ORIENTED_EDGE('',*,*,#334,.F.);
#385=ORIENTED_EDGE('',*,*,#302,.F.);
#386=ORIENTED_EDGE('',*,*,#270,.F.);
#387=ORIENTED_EDGE('',*,*,#238,.F.);
#388=ORIENTED_EDGE('',*,*,#207,.F.);
#389=ORIENTED_EDGE('',*,*,#175,.F.);
#390=ORIENTED_EDGE('',*,*,#143,.F.);
#391=ORIENTED_EDGE('',*,*,#111,.F.);
#392=ORIENTED_EDGE('',*,*,#79,.F.);
#393=EDGE_LOOP('',(#382,#383,#384,#385,#386,#387,#388,#389,#390,#391,#392));
#394=FACE_OUTER_BOUND('',#393,.T.);
#395=CARTESIAN_POINT('',(-0.387500000000,6.0,0.258942625000));
#396=DIRECTION('',(-0.0,-1.0,0.0));
#397=DIRECTION('',(1.0,-0.0,0.0));
#398=AXIS2_PLACEMENT_3D('',#395,#396,#397);
#399=PLANE('',#398);
#400=ADVANCED_FACE('',(#394),#399,.F.);
#401=ORIENTED_EDGE('',*,*,#371,.F.);
#402=ORIENTED_EDGE('',*,*,#57,.F.);
#403=ORIENTED_EDGE('',*,*,#93,.T.);
#404=ORIENTED_EDGE('',*,*,#126,.T.);
#405=ORIENTED_EDGE('',*,*,#157,.T.);
#406=ORIENTED_EDGE('',*,*,#190,.T.);
#407=ORIENTED_EDGE('',*,*,#221,.F.);
#408=ORIENTED_EDGE('',*,*,#252,.T.);
#409=ORIENTED_EDGE('',*,*,#285,.F.);
#410=ORIENTED_EDGE('',*,*,#316,.F.);
#411=ORIENTED_EDGE('',*,*,#349,.F.);
#412=EDGE_LOOP('',(#401,#402,#403,#404,#405,#406,#407,#408,#409,#410,#411));
#413=FACE_OUTER_BOUND('',#412,.T.);
#414=CARTESIAN_POINT('',(-0.387500000000,0.0,0.258942625000));
#415=DIRECTION('',(-0.0,-1.0,0.0));
#416=DIRECTION('',(1.0,-0.0,0.0));
#417=AXIS2_PLACEMENT_3D('',#414,#415,#416);
#418=PLANE('',#417);
#419=ADVANCED_FACE('',(#413),#418,.T.);
#420=CLOSED_SHELL('',(#72,#103,#136,#167,#200,#231,#262,#295,#326,#359,#381,#400,#419));
#421=MANIFOLD_SOLID_BREP('',#420);
#422=COLOUR_RGB('',1.0,0.0,0.0);
#423=FILL_AREA_STYLE_COLOUR('',#422);
#424=FILL_AREA_STYLE('',(#423));
#425=SURFACE_STYLE_FILL_AREA(#424);
#426=SURFACE_SIDE_STYLE('',(#425));
#427=SURFACE_STYLE_USAGE(.BOTH.,#426);
#428=PRESENTATION_STYLE_ASSIGNMENT((#427));
#429=STYLED_ITEM('',(#428),#421);
#430=ADVANCED_BREP_SHAPE_REPRESENTATION('',(#421,#23),#18);
#431=SHAPE_DEFINITION_REPRESENTATION(#30,#430);
#432=DERIVED_UNIT_ELEMENT(#12,3.0);
#433=VOLUME_UNIT((#432));
#434=NAME_ATTRIBUTE('CUBIC MILLIMETRE',#433);
#435=DERIVED_UNIT_ELEMENT(#12,2.0);
#436=AREA_UNIT((#435));
#437=NAME_ATTRIBUTE('SQUARE MILLIMETRE',#436);
#438=SHAPE_ASPECT('#438','solid #421',#30,.F.);
#439=GEOMETRIC_ITEM_SPECIFIC_USAGE('Shape for Validation Properties','',#438,#430,#421);
#440=MEASURE_REPRESENTATION_ITEM('volume measure',VOLUME_MEASURE(0.388112248073126),#433);
#441=REPRESENTATION('volume',(#440),#18);
#442=PROPERTY_DEFINITION('volume of #421','geometric validation property',#438);
#443=PROPERTY_DEFINITION_REPRESENTATION(#442,#441);
#444=MEASURE_REPRESENTATION_ITEM('surface area measure',AREA_MEASURE(17.8062571852754),#436);
#445=REPRESENTATION('surface area',(#444),#18);
#446=PROPERTY_DEFINITION('area of #421','geometric validation property',#438);
#447=PROPERTY_DEFINITION_REPRESENTATION(#446,#445);
#448=CARTESIAN_POINT('centre point',(-0.182944399230,3.0,0.204555600770));
#449=REPRESENTATION('centroid',(#448),#18);
#450=PROPERTY_DEFINITION('centroid of #421','geometric validation property',#438);
#451=PROPERTY_DEFINITION_REPRESENTATION(#450,#449);
#452=CARTESIAN_POINT('bounding box corner point',(-0.387500000000,0.0,-0.0));
#453=CARTESIAN_POINT('bounding box corner point',(0.362500000000,6.0,0.750000000000));
#454=REPRESENTATION('bounding box',(#452,#453),#18);
#455=PROPERTY_DEFINITION('bounding box of #421','geometric validation property',#438);
#456=PROPERTY_DEFINITION_REPRESENTATION(#455,#454);
#457=PRESENTATION_LAYER_ASSIGNMENT('1','Unnamed [1]',(#421));
ENDSEC;
END-ISO-10303-21;
