ISO-10303-21;
HEADER;
FILE_DESCRIPTION(('', 'CAx-IF Rec.Pracs.---Representation and Presentation of Product Manufacturing Information (PMI)---4.0---2014-10-13'),'2;1');
FILE_NAME('SG2683.STP', '2024-11-05T13:32:31',(''), (''), 'Kubotek Kosmos 3D Framework Version 6.0.14858.14858', 'Kubotek Kosmos 3D Framework', '');
FILE_SCHEMA(('AP242_MANAGED_MODEL_BASED_3D_ENGINEERING_MIM_LF  { 1 0 10303 442 4 1 4 }'));
ENDSEC;
DATA;
#1=PRODUCT_DEFINITION_CONTEXT('',#4,'design');
#2=PRODUCT_CONTEXT('',#4,'mechanical');
#3=APPLICATION_PROTOCOL_DEFINITION('international standard','ap242_managed_model_based_3d_engineering',2011,#4);
#4=APPLICATION_CONTEXT('managed model based 3d engineering');
#10=DIMENSIONAL_EXPONENTS(1.0,0.0,0.0,0.0,0.0,0.0,0.0);
#11=DIMENSIONAL_EXPONENTS(0.0,0.0,0.0,0.0,0.0,0.0,0.0);
#12=(LENGTH_UNIT()NAMED_UNIT(*)SI_UNIT(.MILLI.,.METRE.));
#13=(NAMED_UNIT(*)PLANE_ANGLE_UNIT()SI_UNIT($,.RADIAN.));
#14=(NAMED_UNIT(*)SI_UNIT($,.STERADIAN.)SOLID_ANGLE_UNIT());
#15=LENGTH_MEASURE_WITH_UNIT(LENGTH_MEASURE(25.4),#12);
#16=(CONVERSION_BASED_UNIT('INCH',#15)LENGTH_UNIT()NAMED_UNIT(#10));
#17=UNCERTAINTY_MEASURE_WITH_UNIT(LENGTH_MEASURE(1.0E-006),#16,'','');
#18=(GEOMETRIC_REPRESENTATION_CONTEXT(3)GLOBAL_UNCERTAINTY_ASSIGNED_CONTEXT((#17))GLOBAL_UNIT_ASSIGNED_CONTEXT((#16,#13,#14))REPRESENTATION_CONTEXT('NONE','WORKSPACE'));
#20=CARTESIAN_POINT('',(0.0,0.0,0.0));
#21=DIRECTION('',(0.0,0.0,1.0));
#22=DIRECTION('',(1.0,0.0,0.0));
#23=AXIS2_PLACEMENT_3D('',#20,#21,#22);
#24=PRODUCT('','','',(#2));
#25=PRODUCT_DEFINITION_FORMATION_WITH_SPECIFIED_SOURCE('','',#24,.NOT_KNOWN.);
#26=PRODUCT_CATEGORY('Part','');
#27=PRODUCT_RELATED_PRODUCT_CATEGORY('detail','',(#24));
#28=PRODUCT_CATEGORY_RELATIONSHIP('','',#26,#27);
#29=PRODUCT_DEFINITION('','',#25,#1);
#30=PRODUCT_DEFINITION_SHAPE('NONE','NONE',#29);
#31=CARTESIAN_POINT('',(0.0500000000000,5.54000000000,0.870000000000));
#32=VERTEX_POINT('',#31);
#33=CARTESIAN_POINT('',(-0.0,5.54000000000,0.870000000000));
#34=VERTEX_POINT('',#33);
#35=CARTESIAN_POINT('',(0.0250000000000,5.54000000000,0.870000000000));
#36=DIRECTION('',(0.0,-1.0,0.0));
#37=DIRECTION('',(-0.0,-0.0,-1.0));
#38=AXIS2_PLACEMENT_3D('',#35,#36,#37);
#39=CIRCLE('',#38,0.025);
#40=EDGE_CURVE('',#32,#34,#39,.T.);
#41=ORIENTED_EDGE('',*,*,#40,.T.);
#42=CARTESIAN_POINT('',(-0.0,-0.460000000000,0.870000000000));
#43=VERTEX_POINT('',#42);
#44=CARTESIAN_POINT('',(-0.0,-0.460000000000,0.870000000000));
#45=DIRECTION('',(0.0,1.0,-0.0));
#46=VECTOR('',#45,1.0);
#47=LINE('',#44,#46);
#48=EDGE_CURVE('',#43,#34,#47,.T.);
#49=ORIENTED_EDGE('',*,*,#48,.F.);
#50=CARTESIAN_POINT('',(0.0500000000000,-0.460000000000,0.870000000000));
#51=VERTEX_POINT('',#50);
#52=CARTESIAN_POINT('',(0.0250000000000,-0.460000000000,0.870000000000));
#53=DIRECTION('',(0.0,-1.0,0.0));
#54=DIRECTION('',(-0.0,-0.0,-1.0));
#55=AXIS2_PLACEMENT_3D('',#52,#53,#54);
#56=CIRCLE('',#55,0.025);
#57=EDGE_CURVE('',#51,#43,#56,.T.);
#58=ORIENTED_EDGE('',*,*,#57,.F.);
#59=CARTESIAN_POINT('',(0.0500000000000,-0.460000000000,0.870000000000));
#60=DIRECTION('',(0.0,1.0,-0.0));
#61=VECTOR('',#60,1.0);
#62=LINE('',#59,#61);
#63=EDGE_CURVE('',#51,#32,#62,.T.);
#64=ORIENTED_EDGE('',*,*,#63,.T.);
#65=EDGE_LOOP('',(#41,#49,#58,#64));
#66=FACE_OUTER_BOUND('',#65,.T.);
#67=CARTESIAN_POINT('',(0.0250000000000,-0.460000000000,0.870000000000));
#68=DIRECTION('',(0.0,1.0,-0.0));
#69=DIRECTION('',(-0.0,-0.0,-1.0));
#70=AXIS2_PLACEMENT_3D('',#67,#68,#69);
#71=CYLINDRICAL_SURFACE('',#70,0.025);
#72=ADVANCED_FACE('',(#66),#71,.T.);
#73=CARTESIAN_POINT('',(0.0,5.54000000000,0.0500000000000));
#74=VERTEX_POINT('',#73);
#75=CARTESIAN_POINT('',(0.0,5.54000000000,0.870000000000));
#76=DIRECTION('',(0.0,-0.0,-1.0));
#77=VECTOR('',#76,1.0);
#78=LINE('',#75,#77);
#79=EDGE_CURVE('',#34,#74,#78,.T.);
#80=ORIENTED_EDGE('',*,*,#79,.T.);
#81=CARTESIAN_POINT('',(0.0,-0.460000000000,0.0500000000000));
#82=VERTEX_POINT('',#81);
#83=CARTESIAN_POINT('',(0.0,-0.460000000000,0.0500000000000));
#84=DIRECTION('',(0.0,1.0,-0.0));
#85=VECTOR('',#84,1.0);
#86=LINE('',#83,#85);
#87=EDGE_CURVE('',#82,#74,#86,.T.);
#88=ORIENTED_EDGE('',*,*,#87,.F.);
#89=CARTESIAN_POINT('',(0.0,-0.460000000000,0.870000000000));
#90=DIRECTION('',(0.0,-0.0,-1.0));
#91=VECTOR('',#90,1.0);
#92=LINE('',#89,#91);
#93=EDGE_CURVE('',#43,#82,#92,.T.);
#94=ORIENTED_EDGE('',*,*,#93,.F.);
#95=ORIENTED_EDGE('',*,*,#48,.T.);
#96=EDGE_LOOP('',(#80,#88,#94,#95));
#97=FACE_OUTER_BOUND('',#96,.T.);
#98=CARTESIAN_POINT('',(0.0,-0.460000000000,0.460000000000));
#99=DIRECTION('',(-1.0,0.0,-0.0));
#100=DIRECTION('',(-0.0,0.0,1.0));
#101=AXIS2_PLACEMENT_3D('',#98,#99,#100);
#102=PLANE('',#101);
#103=ADVANCED_FACE('',(#97),#102,.T.);
#104=CARTESIAN_POINT('',(0.0500000000000,5.54000000000,0.0));
#105=VERTEX_POINT('',#104);
#106=CARTESIAN_POINT('',(0.0500000000000,5.54000000000,0.0500000000000));
#107=DIRECTION('',(0.0,-1.0,0.0));
#108=DIRECTION('',(-0.0,-0.0,-1.0));
#109=AXIS2_PLACEMENT_3D('',#106,#107,#108);
#110=CIRCLE('',#109,0.05);
#111=EDGE_CURVE('',#74,#105,#110,.T.);
#112=ORIENTED_EDGE('',*,*,#111,.T.);
#113=CARTESIAN_POINT('',(0.0500000000000,-0.460000000000,0.0));
#114=VERTEX_POINT('',#113);
#115=CARTESIAN_POINT('',(0.0500000000000,-0.460000000000,0.0));
#116=DIRECTION('',(0.0,1.0,-0.0));
#117=VECTOR('',#116,1.0);
#118=LINE('',#115,#117);
#119=EDGE_CURVE('',#114,#105,#118,.T.);
#120=ORIENTED_EDGE('',*,*,#119,.F.);
#121=CARTESIAN_POINT('',(0.0500000000000,-0.460000000000,0.0500000000000));
#122=DIRECTION('',(0.0,-1.0,0.0));
#123=DIRECTION('',(-0.0,-0.0,-1.0));
#124=AXIS2_PLACEMENT_3D('',#121,#122,#123);
#125=CIRCLE('',#124,0.05);
#126=EDGE_CURVE('',#82,#114,#125,.T.);
#127=ORIENTED_EDGE('',*,*,#126,.F.);
#128=ORIENTED_EDGE('',*,*,#87,.T.);
#129=EDGE_LOOP('',(#112,#120,#127,#128));
#130=FACE_OUTER_BOUND('',#129,.T.);
#131=CARTESIAN_POINT('',(0.0500000000000,-0.460000000000,0.0500000000000));
#132=DIRECTION('',(0.0,1.0,-0.0));
#133=DIRECTION('',(0.707106781187,0.0,0.707106781187));
#134=AXIS2_PLACEMENT_3D('',#131,#132,#133);
#135=CYLINDRICAL_SURFACE('',#134,0.05);
#136=ADVANCED_FACE('',(#130),#135,.T.);
#137=CARTESIAN_POINT('',(0.190182401340,5.54000000000,-0.0));
#138=VERTEX_POINT('',#137);
#139=CARTESIAN_POINT('',(0.0500000000000,5.54000000000,-0.0));
#140=DIRECTION('',(1.0,0.0,0.0));
#141=VECTOR('',#140,1.0);
#142=LINE('',#139,#141);
#143=EDGE_CURVE('',#105,#138,#142,.T.);
#144=ORIENTED_EDGE('',*,*,#143,.T.);
#145=CARTESIAN_POINT('',(0.190182401340,-0.460000000000,0.0));
#146=VERTEX_POINT('',#145);
#147=CARTESIAN_POINT('',(0.190182401340,-0.460000000000,0.0));
#148=DIRECTION('',(0.0,1.0,-0.0));
#149=VECTOR('',#148,1.0);
#150=LINE('',#147,#149);
#151=EDGE_CURVE('',#146,#138,#150,.T.);
#152=ORIENTED_EDGE('',*,*,#151,.F.);
#153=CARTESIAN_POINT('',(0.0500000000000,-0.460000000000,0.0));
#154=DIRECTION('',(1.0,0.0,0.0));
#155=VECTOR('',#154,1.0);
#156=LINE('',#153,#155);
#157=EDGE_CURVE('',#114,#146,#156,.T.);
#158=ORIENTED_EDGE('',*,*,#157,.F.);
#159=ORIENTED_EDGE('',*,*,#119,.T.);
#160=EDGE_LOOP('',(#144,#152,#158,#159));
#161=FACE_OUTER_BOUND('',#160,.T.);
#162=CARTESIAN_POINT('',(0.120091200670,-0.460000000000,0.0));
#163=DIRECTION('',(0.0,-0.0,-1.0));
#164=DIRECTION('',(-1.0,-0.0,-0.0));
#165=AXIS2_PLACEMENT_3D('',#162,#163,#164);
#166=PLANE('',#165);
#167=ADVANCED_FACE('',(#161),#166,.T.);
#168=CARTESIAN_POINT('',(0.240180518931,5.54000000000,0.0495661367144));
#169=VERTEX_POINT('',#168);
#170=CARTESIAN_POINT('',(0.190182401340,5.54000000000,0.0500000000000));
#171=DIRECTION('',(0.0,-1.0,0.0));
#172=DIRECTION('',(-0.0,-0.0,-1.0));
#173=AXIS2_PLACEMENT_3D('',#170,#171,#172);
#174=CIRCLE('',#173,0.05);
#175=EDGE_CURVE('',#138,#169,#174,.T.);
#176=ORIENTED_EDGE('',*,*,#175,.T.);
#177=CARTESIAN_POINT('',(0.240180518931,-0.460000000000,0.0495661367144));
#178=VERTEX_POINT('',#177);
#179=CARTESIAN_POINT('',(0.240180518931,-0.460000000000,0.0495661367144));
#180=DIRECTION('',(0.0,1.0,-0.0));
#181=VECTOR('',#180,1.0);
#182=LINE('',#179,#181);
#183=EDGE_CURVE('',#178,#169,#182,.T.);
#184=ORIENTED_EDGE('',*,*,#183,.F.);
#185=CARTESIAN_POINT('',(0.190182401340,-0.460000000000,0.0500000000000));
#186=DIRECTION('',(0.0,-1.0,0.0));
#187=DIRECTION('',(-0.0,-0.0,-1.0));
#188=AXIS2_PLACEMENT_3D('',#185,#186,#187);
#189=CIRCLE('',#188,0.05);
#190=EDGE_CURVE('',#146,#178,#189,.T.);
#191=ORIENTED_EDGE('',*,*,#190,.F.);
#192=ORIENTED_EDGE('',*,*,#151,.T.);
#193=EDGE_LOOP('',(#176,#184,#191,#192));
#194=FACE_OUTER_BOUND('',#193,.T.);
#195=CARTESIAN_POINT('',(0.190182401340,-0.460000000000,0.0500000000000));
#196=DIRECTION('',(0.0,1.0,-0.0));
#197=DIRECTION('',(-0.704032220245,0.0,0.710168031424));
#198=AXIS2_PLACEMENT_3D('',#195,#196,#197);
#199=CYLINDRICAL_SURFACE('',#198,0.05);
#200=ADVANCED_FACE('',(#194),#199,.T.);
#201=CARTESIAN_POINT('',(0.206183732936,5.54000000000,0.588386489987));
#202=VERTEX_POINT('',#201);
#203=CARTESIAN_POINT('',(-3.52843459423,5.54000000000,0.0822686426096));
#204=DIRECTION('',(0.0,-1.0,0.0));
#205=DIRECTION('',(-0.0,-0.0,-1.0));
#206=AXIS2_PLACEMENT_3D('',#203,#204,#205);
#207=CIRCLE('',#206,3.768757);
#208=EDGE_CURVE('',#169,#202,#207,.T.);
#209=ORIENTED_EDGE('',*,*,#208,.T.);
#210=CARTESIAN_POINT('',(0.206183732936,-0.460000000000,0.588386489987));
#211=VERTEX_POINT('',#210);
#212=CARTESIAN_POINT('',(0.206183732936,-0.460000000000,0.588386489987));
#213=DIRECTION('',(0.0,1.0,-0.0));
#214=VECTOR('',#213,1.0);
#215=LINE('',#212,#214);
#216=EDGE_CURVE('',#211,#202,#215,.T.);
#217=ORIENTED_EDGE('',*,*,#216,.F.);
#218=CARTESIAN_POINT('',(-3.52843459423,-0.460000000000,0.0822686426096));
#219=DIRECTION('',(0.0,-1.0,0.0));
#220=DIRECTION('',(-0.0,-0.0,-1.0));
#221=AXIS2_PLACEMENT_3D('',#218,#219,#220);
#222=CIRCLE('',#221,3.768757);
#223=EDGE_CURVE('',#178,#211,#222,.T.);
#224=ORIENTED_EDGE('',*,*,#223,.F.);
#225=ORIENTED_EDGE('',*,*,#183,.T.);
#226=EDGE_LOOP('',(#209,#217,#224,#225));
#227=FACE_OUTER_BOUND('',#226,.T.);
#228=CARTESIAN_POINT('',(-3.52843459423,-0.460000000000,0.0822686426096));
#229=DIRECTION('',(0.0,1.0,-0.0));
#230=DIRECTION('',(-0.0,-0.0,-1.0));
#231=AXIS2_PLACEMENT_3D('',#228,#229,#230);
#232=CYLINDRICAL_SURFACE('',#231,3.768757);
#233=ADVANCED_FACE('',(#227),#232,.T.);
#234=CARTESIAN_POINT('',(0.156455907529,5.54000000000,0.581647343508));
#235=VERTEX_POINT('',#234);
#236=CARTESIAN_POINT('',(0.181319820232,5.54000000000,0.585016916748));
#237=DIRECTION('',(0.0,-1.0,0.0));
#238=DIRECTION('',(-0.0,-0.0,-1.0));
#239=AXIS2_PLACEMENT_3D('',#236,#237,#238);
#240=CIRCLE('',#239,0.0250911972362298);
#241=EDGE_CURVE('',#202,#235,#240,.T.);
#242=ORIENTED_EDGE('',*,*,#241,.T.);
#243=CARTESIAN_POINT('',(0.156455907529,-0.460000000000,0.581647343508));
#244=VERTEX_POINT('',#243);
#245=CARTESIAN_POINT('',(0.156455907529,-0.460000000000,0.581647343508));
#246=DIRECTION('',(0.0,1.0,-0.0));
#247=VECTOR('',#246,1.0);
#248=LINE('',#245,#247);
#249=EDGE_CURVE('',#244,#235,#248,.T.);
#250=ORIENTED_EDGE('',*,*,#249,.F.);
#251=CARTESIAN_POINT('',(0.181319820232,-0.460000000000,0.585016916748));
#252=DIRECTION('',(0.0,-1.0,0.0));
#253=DIRECTION('',(-0.0,-0.0,-1.0));
#254=AXIS2_PLACEMENT_3D('',#251,#252,#253);
#255=CIRCLE('',#254,0.0250911972362298);
#256=EDGE_CURVE('',#211,#244,#255,.T.);
#257=ORIENTED_EDGE('',*,*,#256,.F.);
#258=ORIENTED_EDGE('',*,*,#216,.T.);
#259=EDGE_LOOP('',(#242,#250,#257,#258));
#260=FACE_OUTER_BOUND('',#259,.T.);
#261=CARTESIAN_POINT('',(0.181319820232,-0.460000000000,0.585016916748));
#262=DIRECTION('',(0.0,1.0,-0.0));
#263=DIRECTION('',(-0.0,-0.0,-1.0));
#264=AXIS2_PLACEMENT_3D('',#261,#262,#263);
#265=CYLINDRICAL_SURFACE('',#264,0.0250911972362298);
#266=ADVANCED_FACE('',(#260),#265,.T.);
#267=CARTESIAN_POINT('',(0.190000000000,5.54000000000,0.0500000000000));
#268=VERTEX_POINT('',#267);
#269=CARTESIAN_POINT('',(-3.52843459423,5.54000000000,0.0822686426096));
#270=DIRECTION('',(0.0,1.0,-0.0));
#271=DIRECTION('',(-0.0,-0.0,-1.0));
#272=AXIS2_PLACEMENT_3D('',#269,#270,#271);
#273=CIRCLE('',#272,3.71857460552754);
#274=EDGE_CURVE('',#235,#268,#273,.T.);
#275=ORIENTED_EDGE('',*,*,#274,.T.);
#276=CARTESIAN_POINT('',(0.190000000000,-0.460000000000,0.0500000000000));
#277=VERTEX_POINT('',#276);
#278=CARTESIAN_POINT('',(0.190000000000,-0.460000000000,0.0500000000000));
#279=DIRECTION('',(0.0,1.0,-0.0));
#280=VECTOR('',#279,1.0);
#281=LINE('',#278,#280);
#282=EDGE_CURVE('',#277,#268,#281,.T.);
#283=ORIENTED_EDGE('',*,*,#282,.F.);
#284=CARTESIAN_POINT('',(-3.52843459423,-0.460000000000,0.0822686426096));
#285=DIRECTION('',(-0.0,-1.0,0.0));
#286=DIRECTION('',(-0.0,-0.0,-1.0));
#287=AXIS2_PLACEMENT_3D('',#284,#285,#286);
#288=CIRCLE('',#287,3.71857460552754);
#289=EDGE_CURVE('',#277,#244,#288,.T.);
#290=ORIENTED_EDGE('',*,*,#289,.T.);
#291=ORIENTED_EDGE('',*,*,#249,.T.);
#292=EDGE_LOOP('',(#275,#283,#290,#291));
#293=FACE_OUTER_BOUND('',#292,.T.);
#294=CARTESIAN_POINT('',(-3.52843459423,-0.460000000000,0.0822686426096));
#295=DIRECTION('',(0.0,1.0,-0.0));
#296=DIRECTION('',(-0.0,-0.0,-1.0));
#297=AXIS2_PLACEMENT_3D('',#294,#295,#296);
#298=CYLINDRICAL_SURFACE('',#297,3.71857460552754);
#299=ADVANCED_FACE('',(#293),#298,.F.);
#300=CARTESIAN_POINT('',(0.0500000000000,5.54000000000,0.0500000000000));
#301=VERTEX_POINT('',#300);
#302=CARTESIAN_POINT('',(0.0500000000000,5.54000000000,0.0500000000000));
#303=DIRECTION('',(-1.0,-0.0,-0.0));
#304=VECTOR('',#303,1.0);
#305=LINE('',#302,#304);
#306=EDGE_CURVE('',#268,#301,#305,.T.);
#307=ORIENTED_EDGE('',*,*,#306,.T.);
#308=CARTESIAN_POINT('',(0.0500000000000,-0.460000000000,0.0500000000000));
#309=VERTEX_POINT('',#308);
#310=CARTESIAN_POINT('',(0.0500000000000,-0.460000000000,0.0500000000000));
#311=DIRECTION('',(0.0,1.0,-0.0));
#312=VECTOR('',#311,1.0);
#313=LINE('',#310,#312);
#314=EDGE_CURVE('',#309,#301,#313,.T.);
#315=ORIENTED_EDGE('',*,*,#314,.F.);
#316=CARTESIAN_POINT('',(0.0500000000000,-0.460000000000,0.0500000000000));
#317=DIRECTION('',(1.0,0.0,0.0));
#318=VECTOR('',#317,1.0);
#319=LINE('',#316,#318);
#320=EDGE_CURVE('',#309,#277,#319,.T.);
#321=ORIENTED_EDGE('',*,*,#320,.T.);
#322=ORIENTED_EDGE('',*,*,#282,.T.);
#323=EDGE_LOOP('',(#307,#315,#321,#322));
#324=FACE_OUTER_BOUND('',#323,.T.);
#325=CARTESIAN_POINT('',(0.120000000000,-0.460000000000,0.0500000000000));
#326=DIRECTION('',(-0.0,0.0,1.0));
#327=DIRECTION('',(1.0,0.0,0.0));
#328=AXIS2_PLACEMENT_3D('',#325,#326,#327);
#329=PLANE('',#328);
#330=ADVANCED_FACE('',(#324),#329,.T.);
#331=CARTESIAN_POINT('',(0.0500000000000,5.54000000000,0.870000000000));
#332=DIRECTION('',(0.0,0.0,1.0));
#333=VECTOR('',#332,1.0);
#334=LINE('',#331,#333);
#335=EDGE_CURVE('',#301,#32,#334,.T.);
#336=ORIENTED_EDGE('',*,*,#335,.T.);
#337=ORIENTED_EDGE('',*,*,#63,.F.);
#338=CARTESIAN_POINT('',(0.0500000000000,-0.460000000000,0.870000000000));
#339=DIRECTION('',(0.0,-0.0,-1.0));
#340=VECTOR('',#339,1.0);
#341=LINE('',#338,#340);
#342=EDGE_CURVE('',#51,#309,#341,.T.);
#343=ORIENTED_EDGE('',*,*,#342,.T.);
#344=ORIENTED_EDGE('',*,*,#314,.T.);
#345=EDGE_LOOP('',(#336,#337,#343,#344));
#346=FACE_OUTER_BOUND('',#345,.T.);
#347=CARTESIAN_POINT('',(0.0500000000000,-0.460000000000,0.460000000000));
#348=DIRECTION('',(1.0,0.0,0.0));
#349=DIRECTION('',(0.0,-0.0,-1.0));
#350=AXIS2_PLACEMENT_3D('',#347,#348,#349);
#351=PLANE('',#350);
#352=ADVANCED_FACE('',(#346),#351,.T.);
#353=ORIENTED_EDGE('',*,*,#40,.F.);
#354=ORIENTED_EDGE('',*,*,#335,.F.);
#355=ORIENTED_EDGE('',*,*,#306,.F.);
#356=ORIENTED_EDGE('',*,*,#274,.F.);
#357=ORIENTED_EDGE('',*,*,#241,.F.);
#358=ORIENTED_EDGE('',*,*,#208,.F.);
#359=ORIENTED_EDGE('',*,*,#175,.F.);
#360=ORIENTED_EDGE('',*,*,#143,.F.);
#361=ORIENTED_EDGE('',*,*,#111,.F.);
#362=ORIENTED_EDGE('',*,*,#79,.F.);
#363=EDGE_LOOP('',(#353,#354,#355,#356,#357,#358,#359,#360,#361,#362));
#364=FACE_OUTER_BOUND('',#363,.T.);
#365=CARTESIAN_POINT('',(0.0500000000000,5.54000000000,0.613893500000));
#366=DIRECTION('',(0.0,1.0,-0.0));
#367=DIRECTION('',(-1.0,0.0,0.0));
#368=AXIS2_PLACEMENT_3D('',#365,#366,#367);
#369=PLANE('',#368);
#370=ADVANCED_FACE('',(#364),#369,.T.);
#371=ORIENTED_EDGE('',*,*,#342,.F.);
#372=ORIENTED_EDGE('',*,*,#57,.T.);
#373=ORIENTED_EDGE('',*,*,#93,.T.);
#374=ORIENTED_EDGE('',*,*,#126,.T.);
#375=ORIENTED_EDGE('',*,*,#157,.T.);
#376=ORIENTED_EDGE('',*,*,#190,.T.);
#377=ORIENTED_EDGE('',*,*,#223,.T.);
#378=ORIENTED_EDGE('',*,*,#256,.T.);
#379=ORIENTED_EDGE('',*,*,#289,.F.);
#380=ORIENTED_EDGE('',*,*,#320,.F.);
#381=EDGE_LOOP('',(#371,#372,#373,#374,#375,#376,#377,#378,#379,#380));
#382=FACE_OUTER_BOUND('',#381,.T.);
#383=CARTESIAN_POINT('',(0.0500000000000,-0.460000000000,0.613893500000));
#384=DIRECTION('',(0.0,1.0,-0.0));
#385=DIRECTION('',(-1.0,0.0,0.0));
#386=AXIS2_PLACEMENT_3D('',#383,#384,#385);
#387=PLANE('',#386);
#388=ADVANCED_FACE('',(#382),#387,.F.);
#389=CLOSED_SHELL('',(#72,#103,#136,#167,#200,#233,#266,#299,#330,#352,#370,#388));
#390=MANIFOLD_SOLID_BREP('',#389);
#391=COLOUR_RGB('',1.0,0.0,0.0);
#392=FILL_AREA_STYLE_COLOUR('',#391);
#393=FILL_AREA_STYLE('',(#392));
#394=SURFACE_STYLE_FILL_AREA(#393);
#395=SURFACE_SIDE_STYLE('',(#394));
#396=SURFACE_STYLE_USAGE(.BOTH.,#395);
#397=PRESENTATION_STYLE_ASSIGNMENT((#396));
#398=STYLED_ITEM('',(#397),#390);
#399=ADVANCED_BREP_SHAPE_REPRESENTATION('',(#390,#23),#18);
#400=SHAPE_DEFINITION_REPRESENTATION(#30,#399);
#401=DERIVED_UNIT_ELEMENT(#12,3.0);
#402=VOLUME_UNIT((#401));
#403=NAME_ATTRIBUTE('CUBIC MILLIMETRE',#402);
#404=DERIVED_UNIT_ELEMENT(#12,2.0);
#405=AREA_UNIT((#404));
#406=NAME_ATTRIBUTE('SQUARE MILLIMETRE',#405);
#407=SHAPE_ASPECT('#407','solid #390',#30,.F.);
#408=GEOMETRIC_ITEM_SPECIFIC_USAGE('Shape for Validation Properties','',#407,#399,#390);
#409=MEASURE_REPRESENTATION_ITEM('volume measure',VOLUME_MEASURE(0.484690846038298),#402);
#410=REPRESENTATION('volume',(#409),#18);
#411=PROPERTY_DEFINITION('volume of #390','geometric validation property',#407);
#412=PROPERTY_DEFINITION_REPRESENTATION(#411,#410);
#413=MEASURE_REPRESENTATION_ITEM('surface area measure',AREA_MEASURE(20.0042962572766),#405);
#414=REPRESENTATION('surface area',(#413),#18);
#415=PROPERTY_DEFINITION('area of #390','geometric validation property',#407);
#416=PROPERTY_DEFINITION_REPRESENTATION(#415,#414);
#417=CARTESIAN_POINT('centre point',(0.0990319674484,2.54000000000,0.360781355949));
#418=REPRESENTATION('centroid',(#417),#18);
#419=PROPERTY_DEFINITION('centroid of #390','geometric validation property',#407);
#420=PROPERTY_DEFINITION_REPRESENTATION(#419,#418);
#421=CARTESIAN_POINT('bounding box corner point',(-0.0,-0.460000000000,-0.0));
#422=CARTESIAN_POINT('bounding box corner point',(0.240322405768,5.54000000000,0.895000000000));
#423=REPRESENTATION('bounding box',(#421,#422),#18);
#424=PROPERTY_DEFINITION('bounding box of #390','geometric validation property',#407);
#425=PROPERTY_DEFINITION_REPRESENTATION(#424,#423);
#426=PRESENTATION_LAYER_ASSIGNMENT('1','Unnamed [1]',(#390));
ENDSEC;
END-ISO-10303-21;
