ISO-10303-21;
HEADER;
FILE_DESCRIPTION(('', 'CAx-IF Rec.Pracs.---Representation and Presentation of Product Manufacturing Information (PMI)---4.0---2014-10-13'),'2;1');
FILE_NAME('SG2677.STP', '2024-11-05T13:18:10',(''), (''), 'Kubotek Kosmos 3D Framework Version 6.0.14858.14858', 'Kubotek Kosmos 3D Framework', '');
FILE_SCHEMA(('AP242_MANAGED_MODEL_BASED_3D_ENGINEERING_MIM_LF  { 1 0 10303 442 4 1 4 }'));
ENDSEC;
DATA;
#1=PRODUCT_DEFINITION_CONTEXT('',#4,'design');
#2=PRODUCT_CONTEXT('',#4,'mechanical');
#3=APPLICATION_PROTOCOL_DEFINITION('international standard','ap242_managed_model_based_3d_engineering',2011,#4);
#4=APPLICATION_CONTEXT('managed model based 3d engineering');
#10=DIMENSIONAL_EXPONENTS(1.0,0.0,0.0,0.0,0.0,0.0,0.0);
#11=DIMENSIONAL_EXPONENTS(0.0,0.0,0.0,0.0,0.0,0.0,0.0);
#12=(LENGTH_UNIT()NAMED_UNIT(*)SI_UNIT(.MILLI.,.METRE.));
#13=(NAMED_UNIT(*)PLANE_ANGLE_UNIT()SI_UNIT($,.RADIAN.));
#14=(NAMED_UNIT(*)SI_UNIT($,.STERADIAN.)SOLID_ANGLE_UNIT());
#15=LENGTH_MEASURE_WITH_UNIT(LENGTH_MEASURE(25.4),#12);
#16=(CONVERSION_BASED_UNIT('INCH',#15)LENGTH_UNIT()NAMED_UNIT(#10));
#17=UNCERTAINTY_MEASURE_WITH_UNIT(LENGTH_MEASURE(1.0E-006),#16,'','');
#18=(GEOMETRIC_REPRESENTATION_CONTEXT(3)GLOBAL_UNCERTAINTY_ASSIGNED_CONTEXT((#17))GLOBAL_UNIT_ASSIGNED_CONTEXT((#16,#13,#14))REPRESENTATION_CONTEXT('NONE','WORKSPACE'));
#20=CARTESIAN_POINT('',(0.0,0.0,0.0));
#21=DIRECTION('',(0.0,0.0,1.0));
#22=DIRECTION('',(1.0,0.0,0.0));
#23=AXIS2_PLACEMENT_3D('',#20,#21,#22);
#24=PRODUCT('','','',(#2));
#25=PRODUCT_DEFINITION_FORMATION_WITH_SPECIFIED_SOURCE('','',#24,.NOT_KNOWN.);
#26=PRODUCT_CATEGORY('Part','');
#27=PRODUCT_RELATED_PRODUCT_CATEGORY('detail','',(#24));
#28=PRODUCT_CATEGORY_RELATIONSHIP('','',#26,#27);
#29=PRODUCT_DEFINITION('','',#25,#1);
#30=PRODUCT_DEFINITION_SHAPE('NONE','NONE',#29);
#31=CARTESIAN_POINT('',(0.0350000000000,5.60125000000,0.0350000000000));
#32=VERTEX_POINT('',#31);
#33=CARTESIAN_POINT('',(0.0350000000000,5.60125000000,0.762500000000));
#34=VERTEX_POINT('',#33);
#35=CARTESIAN_POINT('',(0.0350000000000,5.60125000000,0.762500000000));
#36=DIRECTION('',(0.0,0.0,1.0));
#37=VECTOR('',#36,1.0);
#38=LINE('',#35,#37);
#39=EDGE_CURVE('',#32,#34,#38,.T.);
#40=ORIENTED_EDGE('',*,*,#39,.T.);
#41=CARTESIAN_POINT('',(0.0350000000000,-0.398750000000,0.762500000000));
#42=VERTEX_POINT('',#41);
#43=CARTESIAN_POINT('',(0.0350000000000,-0.398750000000,0.762500000000));
#44=DIRECTION('',(0.0,1.0,-0.0));
#45=VECTOR('',#44,1.0);
#46=LINE('',#43,#45);
#47=EDGE_CURVE('',#42,#34,#46,.T.);
#48=ORIENTED_EDGE('',*,*,#47,.F.);
#49=CARTESIAN_POINT('',(0.0350000000000,-0.398750000000,0.0350000000000));
#50=VERTEX_POINT('',#49);
#51=CARTESIAN_POINT('',(0.0350000000000,-0.398750000000,0.762500000000));
#52=DIRECTION('',(0.0,-0.0,-1.0));
#53=VECTOR('',#52,1.0);
#54=LINE('',#51,#53);
#55=EDGE_CURVE('',#42,#50,#54,.T.);
#56=ORIENTED_EDGE('',*,*,#55,.T.);
#57=CARTESIAN_POINT('',(0.0350000000000,-0.398750000000,0.0350000000000));
#58=DIRECTION('',(0.0,1.0,-0.0));
#59=VECTOR('',#58,1.0);
#60=LINE('',#57,#59);
#61=EDGE_CURVE('',#50,#32,#60,.T.);
#62=ORIENTED_EDGE('',*,*,#61,.T.);
#63=EDGE_LOOP('',(#40,#48,#56,#62));
#64=FACE_OUTER_BOUND('',#63,.T.);
#65=CARTESIAN_POINT('',(0.0350000000000,-0.398750000000,0.398750000000));
#66=DIRECTION('',(1.0,0.0,0.0));
#67=DIRECTION('',(0.0,-0.0,-1.0));
#68=AXIS2_PLACEMENT_3D('',#65,#66,#67);
#69=PLANE('',#68);
#70=ADVANCED_FACE('',(#64),#69,.T.);
#71=CARTESIAN_POINT('',(0.0,5.60125000000,0.762500000000));
#72=VERTEX_POINT('',#71);
#73=CARTESIAN_POINT('',(0.0175000000000,5.60125000000,0.762500000000));
#74=DIRECTION('',(-0.0,-1.0,0.0));
#75=DIRECTION('',(-0.0,-0.0,-1.0));
#76=AXIS2_PLACEMENT_3D('',#73,#74,#75);
#77=CIRCLE('',#76,0.0175);
#78=EDGE_CURVE('',#34,#72,#77,.T.);
#79=ORIENTED_EDGE('',*,*,#78,.T.);
#80=CARTESIAN_POINT('',(0.0,-0.398750000000,0.762500000000));
#81=VERTEX_POINT('',#80);
#82=CARTESIAN_POINT('',(0.0,-0.398750000000,0.762500000000));
#83=DIRECTION('',(0.0,1.0,-0.0));
#84=VECTOR('',#83,1.0);
#85=LINE('',#82,#84);
#86=EDGE_CURVE('',#81,#72,#85,.T.);
#87=ORIENTED_EDGE('',*,*,#86,.F.);
#88=CARTESIAN_POINT('',(0.0175000000000,-0.398750000000,0.762500000000));
#89=DIRECTION('',(-0.0,-1.0,0.0));
#90=DIRECTION('',(-0.0,-0.0,-1.0));
#91=AXIS2_PLACEMENT_3D('',#88,#89,#90);
#92=CIRCLE('',#91,0.0175);
#93=EDGE_CURVE('',#42,#81,#92,.T.);
#94=ORIENTED_EDGE('',*,*,#93,.F.);
#95=ORIENTED_EDGE('',*,*,#47,.T.);
#96=EDGE_LOOP('',(#79,#87,#94,#95));
#97=FACE_OUTER_BOUND('',#96,.T.);
#98=CARTESIAN_POINT('',(0.0175000000000,-0.398750000000,0.762500000000));
#99=DIRECTION('',(0.0,1.0,-0.0));
#100=DIRECTION('',(-0.0,-0.0,-1.0));
#101=AXIS2_PLACEMENT_3D('',#98,#99,#100);
#102=CYLINDRICAL_SURFACE('',#101,0.0175);
#103=ADVANCED_FACE('',(#97),#102,.T.);
#104=CARTESIAN_POINT('',(0.0,5.60125000000,0.0350000000000));
#105=VERTEX_POINT('',#104);
#106=CARTESIAN_POINT('',(0.0,5.60125000000,0.762500000000));
#107=DIRECTION('',(0.0,-0.0,-1.0));
#108=VECTOR('',#107,1.0);
#109=LINE('',#106,#108);
#110=EDGE_CURVE('',#72,#105,#109,.T.);
#111=ORIENTED_EDGE('',*,*,#110,.T.);
#112=CARTESIAN_POINT('',(0.0,-0.398750000000,0.0350000000000));
#113=VERTEX_POINT('',#112);
#114=CARTESIAN_POINT('',(0.0,-0.398750000000,0.0350000000000));
#115=DIRECTION('',(0.0,1.0,-0.0));
#116=VECTOR('',#115,1.0);
#117=LINE('',#114,#116);
#118=EDGE_CURVE('',#113,#105,#117,.T.);
#119=ORIENTED_EDGE('',*,*,#118,.F.);
#120=CARTESIAN_POINT('',(0.0,-0.398750000000,0.762500000000));
#121=DIRECTION('',(0.0,-0.0,-1.0));
#122=VECTOR('',#121,1.0);
#123=LINE('',#120,#122);
#124=EDGE_CURVE('',#81,#113,#123,.T.);
#125=ORIENTED_EDGE('',*,*,#124,.F.);
#126=ORIENTED_EDGE('',*,*,#86,.T.);
#127=EDGE_LOOP('',(#111,#119,#125,#126));
#128=FACE_OUTER_BOUND('',#127,.T.);
#129=CARTESIAN_POINT('',(0.0,-0.398750000000,0.398750000000));
#130=DIRECTION('',(-1.0,0.0,-0.0));
#131=DIRECTION('',(-0.0,0.0,1.0));
#132=AXIS2_PLACEMENT_3D('',#129,#130,#131);
#133=PLANE('',#132);
#134=ADVANCED_FACE('',(#128),#133,.T.);
#135=CARTESIAN_POINT('',(0.0350000000000,5.60125000000,-0.0));
#136=VERTEX_POINT('',#135);
#137=CARTESIAN_POINT('',(0.0350000000000,5.60125000000,0.0350000000000));
#138=DIRECTION('',(-0.0,-1.0,0.0));
#139=DIRECTION('',(-0.0,-0.0,-1.0));
#140=AXIS2_PLACEMENT_3D('',#137,#138,#139);
#141=CIRCLE('',#140,0.035);
#142=EDGE_CURVE('',#105,#136,#141,.T.);
#143=ORIENTED_EDGE('',*,*,#142,.T.);
#144=CARTESIAN_POINT('',(0.0350000000000,-0.398750000000,0.0));
#145=VERTEX_POINT('',#144);
#146=CARTESIAN_POINT('',(0.0350000000000,-0.398750000000,0.0));
#147=DIRECTION('',(0.0,1.0,-0.0));
#148=VECTOR('',#147,1.0);
#149=LINE('',#146,#148);
#150=EDGE_CURVE('',#145,#136,#149,.T.);
#151=ORIENTED_EDGE('',*,*,#150,.F.);
#152=CARTESIAN_POINT('',(0.0350000000000,-0.398750000000,0.0350000000000));
#153=DIRECTION('',(-0.0,-1.0,0.0));
#154=DIRECTION('',(-0.0,-0.0,-1.0));
#155=AXIS2_PLACEMENT_3D('',#152,#153,#154);
#156=CIRCLE('',#155,0.035);
#157=EDGE_CURVE('',#113,#145,#156,.T.);
#158=ORIENTED_EDGE('',*,*,#157,.F.);
#159=ORIENTED_EDGE('',*,*,#118,.T.);
#160=EDGE_LOOP('',(#143,#151,#158,#159));
#161=FACE_OUTER_BOUND('',#160,.T.);
#162=CARTESIAN_POINT('',(0.0350000000000,-0.398750000000,0.0350000000000));
#163=DIRECTION('',(0.0,1.0,-0.0));
#164=DIRECTION('',(0.707106781187,0.0,0.707106781187));
#165=AXIS2_PLACEMENT_3D('',#162,#163,#164);
#166=CYLINDRICAL_SURFACE('',#165,0.035);
#167=ADVANCED_FACE('',(#161),#166,.T.);
#168=CARTESIAN_POINT('',(0.140000000000,5.60125000000,-0.0));
#169=VERTEX_POINT('',#168);
#170=CARTESIAN_POINT('',(0.0350000000000,5.60125000000,-0.0));
#171=DIRECTION('',(1.0,0.0,0.0));
#172=VECTOR('',#171,1.0);
#173=LINE('',#170,#172);
#174=EDGE_CURVE('',#136,#169,#173,.T.);
#175=ORIENTED_EDGE('',*,*,#174,.T.);
#176=CARTESIAN_POINT('',(0.140000000000,-0.398750000000,0.0));
#177=VERTEX_POINT('',#176);
#178=CARTESIAN_POINT('',(0.140000000000,-0.398750000000,0.0));
#179=DIRECTION('',(0.0,1.0,-0.0));
#180=VECTOR('',#179,1.0);
#181=LINE('',#178,#180);
#182=EDGE_CURVE('',#177,#169,#181,.T.);
#183=ORIENTED_EDGE('',*,*,#182,.F.);
#184=CARTESIAN_POINT('',(0.0350000000000,-0.398750000000,0.0));
#185=DIRECTION('',(1.0,0.0,0.0));
#186=VECTOR('',#185,1.0);
#187=LINE('',#184,#186);
#188=EDGE_CURVE('',#145,#177,#187,.T.);
#189=ORIENTED_EDGE('',*,*,#188,.F.);
#190=ORIENTED_EDGE('',*,*,#150,.T.);
#191=EDGE_LOOP('',(#175,#183,#189,#190));
#192=FACE_OUTER_BOUND('',#191,.T.);
#193=CARTESIAN_POINT('',(0.0875000000000,-0.398750000000,0.0));
#194=DIRECTION('',(0.0,-0.0,-1.0));
#195=DIRECTION('',(-1.0,-0.0,-0.0));
#196=AXIS2_PLACEMENT_3D('',#193,#194,#195);
#197=PLANE('',#196);
#198=ADVANCED_FACE('',(#192),#197,.T.);
#199=CARTESIAN_POINT('',(0.174999999516,5.60125000000,0.0349941771201));
#200=VERTEX_POINT('',#199);
#201=CARTESIAN_POINT('',(0.140000000000,5.60125000000,0.0350000000000));
#202=DIRECTION('',(0.0,-1.0,0.0));
#203=DIRECTION('',(1.0,0.0,0.0));
#204=AXIS2_PLACEMENT_3D('',#201,#202,#203);
#205=CIRCLE('',#204,0.035);
#206=EDGE_CURVE('',#169,#200,#205,.T.);
#207=ORIENTED_EDGE('',*,*,#206,.T.);
#208=CARTESIAN_POINT('',(0.174999999516,-0.398750000000,0.0349941771201));
#209=VERTEX_POINT('',#208);
#210=CARTESIAN_POINT('',(0.174999999516,-0.398750000000,0.0349941771201));
#211=DIRECTION('',(0.0,1.0,-0.0));
#212=VECTOR('',#211,1.0);
#213=LINE('',#210,#212);
#214=EDGE_CURVE('',#209,#200,#213,.T.);
#215=ORIENTED_EDGE('',*,*,#214,.F.);
#216=CARTESIAN_POINT('',(0.140000000000,-0.398750000000,0.0350000000000));
#217=DIRECTION('',(0.0,-1.0,0.0));
#218=DIRECTION('',(1.0,0.0,0.0));
#219=AXIS2_PLACEMENT_3D('',#216,#217,#218);
#220=CIRCLE('',#219,0.035);
#221=EDGE_CURVE('',#177,#209,#220,.T.);
#222=ORIENTED_EDGE('',*,*,#221,.F.);
#223=ORIENTED_EDGE('',*,*,#182,.T.);
#224=EDGE_LOOP('',(#207,#215,#222,#223));
#225=FACE_OUTER_BOUND('',#224,.T.);
#226=CARTESIAN_POINT('',(0.140000000000,-0.398750000000,0.0350000000000));
#227=DIRECTION('',(0.0,1.0,-0.0));
#228=DIRECTION('',(1.0,0.0,0.0));
#229=AXIS2_PLACEMENT_3D('',#226,#227,#228);
#230=CYLINDRICAL_SURFACE('',#229,0.035);
#231=ADVANCED_FACE('',(#225),#230,.T.);
#232=CARTESIAN_POINT('',(0.159939933968,5.60125000000,0.398948690166));
#233=VERTEX_POINT('',#232);
#234=CARTESIAN_POINT('',(-4.21270793976,5.60125000000,0.0357241513087));
#235=DIRECTION('',(0.0,-1.0,0.0));
#236=DIRECTION('',(-0.0,-0.0,-1.0));
#237=AXIS2_PLACEMENT_3D('',#234,#235,#236);
#238=CIRCLE('',#237,4.387708);
#239=EDGE_CURVE('',#200,#233,#238,.T.);
#240=ORIENTED_EDGE('',*,*,#239,.T.);
#241=CARTESIAN_POINT('',(0.159939933968,-0.398750000000,0.398948690166));
#242=VERTEX_POINT('',#241);
#243=CARTESIAN_POINT('',(0.159939933968,-0.398750000000,0.398948690166));
#244=DIRECTION('',(0.0,1.0,-0.0));
#245=VECTOR('',#244,1.0);
#246=LINE('',#243,#245);
#247=EDGE_CURVE('',#242,#233,#246,.T.);
#248=ORIENTED_EDGE('',*,*,#247,.F.);
#249=CARTESIAN_POINT('',(-4.21270793976,-0.398750000000,0.0357241513087));
#250=DIRECTION('',(0.0,-1.0,0.0));
#251=DIRECTION('',(-0.0,-0.0,-1.0));
#252=AXIS2_PLACEMENT_3D('',#249,#250,#251);
#253=CIRCLE('',#252,4.387708);
#254=EDGE_CURVE('',#209,#242,#253,.T.);
#255=ORIENTED_EDGE('',*,*,#254,.F.);
#256=ORIENTED_EDGE('',*,*,#214,.T.);
#257=EDGE_LOOP('',(#240,#248,#255,#256));
#258=FACE_OUTER_BOUND('',#257,.T.);
#259=CARTESIAN_POINT('',(-4.21270793976,-0.398750000000,0.0357241513087));
#260=DIRECTION('',(0.0,1.0,-0.0));
#261=DIRECTION('',(-0.0,-0.0,-1.0));
#262=AXIS2_PLACEMENT_3D('',#259,#260,#261);
#263=CYLINDRICAL_SURFACE('',#262,4.387708);
#264=ADVANCED_FACE('',(#258),#263,.T.);
#265=CARTESIAN_POINT('',(0.125060066032,5.60125000000,0.396051309834));
#266=VERTEX_POINT('',#265);
#267=CARTESIAN_POINT('',(0.142500000000,5.60125000000,0.397500000000));
#268=DIRECTION('',(-0.0,-1.0,0.0));
#269=DIRECTION('',(-0.0,-0.0,-1.0));
#270=AXIS2_PLACEMENT_3D('',#267,#268,#269);
#271=CIRCLE('',#270,0.0175);
#272=EDGE_CURVE('',#233,#266,#271,.T.);
#273=ORIENTED_EDGE('',*,*,#272,.T.);
#274=CARTESIAN_POINT('',(0.125060066032,-0.398750000000,0.396051309834));
#275=VERTEX_POINT('',#274);
#276=CARTESIAN_POINT('',(0.125060066032,-0.398750000000,0.396051309834));
#277=DIRECTION('',(0.0,1.0,-0.0));
#278=VECTOR('',#277,1.0);
#279=LINE('',#276,#278);
#280=EDGE_CURVE('',#275,#266,#279,.T.);
#281=ORIENTED_EDGE('',*,*,#280,.F.);
#282=CARTESIAN_POINT('',(0.142500000000,-0.398750000000,0.397500000000));
#283=DIRECTION('',(-0.0,-1.0,0.0));
#284=DIRECTION('',(-0.0,-0.0,-1.0));
#285=AXIS2_PLACEMENT_3D('',#282,#283,#284);
#286=CIRCLE('',#285,0.0175);
#287=EDGE_CURVE('',#242,#275,#286,.T.);
#288=ORIENTED_EDGE('',*,*,#287,.F.);
#289=ORIENTED_EDGE('',*,*,#247,.T.);
#290=EDGE_LOOP('',(#273,#281,#288,#289));
#291=FACE_OUTER_BOUND('',#290,.T.);
#292=CARTESIAN_POINT('',(0.142500000000,-0.398750000000,0.397500000000));
#293=DIRECTION('',(0.0,1.0,-0.0));
#294=DIRECTION('',(-0.0,-0.0,-1.0));
#295=AXIS2_PLACEMENT_3D('',#292,#293,#294);
#296=CYLINDRICAL_SURFACE('',#295,0.0175);
#297=ADVANCED_FACE('',(#291),#296,.T.);
#298=CARTESIAN_POINT('',(0.140000000000,5.60125000000,0.0350000000000));
#299=VERTEX_POINT('',#298);
#300=CARTESIAN_POINT('',(-4.21270793976,5.60125000000,0.0357241513087));
#301=DIRECTION('',(-0.0,1.0,-0.0));
#302=DIRECTION('',(-0.0,-0.0,-1.0));
#303=AXIS2_PLACEMENT_3D('',#300,#301,#302);
#304=CIRCLE('',#303,4.352708);
#305=EDGE_CURVE('',#266,#299,#304,.T.);
#306=ORIENTED_EDGE('',*,*,#305,.T.);
#307=CARTESIAN_POINT('',(0.140000000000,-0.398750000000,0.0350000000000));
#308=VERTEX_POINT('',#307);
#309=CARTESIAN_POINT('',(0.140000000000,-0.398750000000,0.0350000000000));
#310=DIRECTION('',(0.0,1.0,-0.0));
#311=VECTOR('',#310,1.0);
#312=LINE('',#309,#311);
#313=EDGE_CURVE('',#308,#299,#312,.T.);
#314=ORIENTED_EDGE('',*,*,#313,.F.);
#315=CARTESIAN_POINT('',(-4.21270793976,-0.398750000000,0.0357241513087));
#316=DIRECTION('',(0.0,-1.0,0.0));
#317=DIRECTION('',(-0.0,-0.0,-1.0));
#318=AXIS2_PLACEMENT_3D('',#315,#316,#317);
#319=CIRCLE('',#318,4.352708);
#320=EDGE_CURVE('',#308,#275,#319,.T.);
#321=ORIENTED_EDGE('',*,*,#320,.T.);
#322=ORIENTED_EDGE('',*,*,#280,.T.);
#323=EDGE_LOOP('',(#306,#314,#321,#322));
#324=FACE_OUTER_BOUND('',#323,.T.);
#325=CARTESIAN_POINT('',(-4.21270793976,-0.398750000000,0.0357241513087));
#326=DIRECTION('',(0.0,1.0,-0.0));
#327=DIRECTION('',(-0.0,-0.0,-1.0));
#328=AXIS2_PLACEMENT_3D('',#325,#326,#327);
#329=CYLINDRICAL_SURFACE('',#328,4.352708);
#330=ADVANCED_FACE('',(#324),#329,.F.);
#331=CARTESIAN_POINT('',(0.0350000000000,5.60125000000,0.0350000000000));
#332=DIRECTION('',(-1.0,-0.0,-0.0));
#333=VECTOR('',#332,1.0);
#334=LINE('',#331,#333);
#335=EDGE_CURVE('',#299,#32,#334,.T.);
#336=ORIENTED_EDGE('',*,*,#335,.T.);
#337=ORIENTED_EDGE('',*,*,#61,.F.);
#338=CARTESIAN_POINT('',(0.0350000000000,-0.398750000000,0.0350000000000));
#339=DIRECTION('',(1.0,0.0,0.0));
#340=VECTOR('',#339,1.0);
#341=LINE('',#338,#340);
#342=EDGE_CURVE('',#50,#308,#341,.T.);
#343=ORIENTED_EDGE('',*,*,#342,.T.);
#344=ORIENTED_EDGE('',*,*,#313,.T.);
#345=EDGE_LOOP('',(#336,#337,#343,#344));
#346=FACE_OUTER_BOUND('',#345,.T.);
#347=CARTESIAN_POINT('',(0.0875000000000,-0.398750000000,0.0350000000000));
#348=DIRECTION('',(-0.0,0.0,1.0));
#349=DIRECTION('',(1.0,0.0,0.0));
#350=AXIS2_PLACEMENT_3D('',#347,#348,#349);
#351=PLANE('',#350);
#352=ADVANCED_FACE('',(#346),#351,.T.);
#353=ORIENTED_EDGE('',*,*,#39,.F.);
#354=ORIENTED_EDGE('',*,*,#335,.F.);
#355=ORIENTED_EDGE('',*,*,#305,.F.);
#356=ORIENTED_EDGE('',*,*,#272,.F.);
#357=ORIENTED_EDGE('',*,*,#239,.F.);
#358=ORIENTED_EDGE('',*,*,#206,.F.);
#359=ORIENTED_EDGE('',*,*,#174,.F.);
#360=ORIENTED_EDGE('',*,*,#142,.F.);
#361=ORIENTED_EDGE('',*,*,#110,.F.);
#362=ORIENTED_EDGE('',*,*,#78,.F.);
#363=EDGE_LOOP('',(#353,#354,#355,#356,#357,#358,#359,#360,#361,#362));
#364=FACE_OUTER_BOUND('',#363,.T.);
#365=CARTESIAN_POINT('',(0.0677941250000,5.60125000000,0.0350000000000));
#366=DIRECTION('',(0.0,1.0,-0.0));
#367=DIRECTION('',(-1.0,0.0,0.0));
#368=AXIS2_PLACEMENT_3D('',#365,#366,#367);
#369=PLANE('',#368);
#370=ADVANCED_FACE('',(#364),#369,.T.);
#371=ORIENTED_EDGE('',*,*,#342,.F.);
#372=ORIENTED_EDGE('',*,*,#55,.F.);
#373=ORIENTED_EDGE('',*,*,#93,.T.);
#374=ORIENTED_EDGE('',*,*,#124,.T.);
#375=ORIENTED_EDGE('',*,*,#157,.T.);
#376=ORIENTED_EDGE('',*,*,#188,.T.);
#377=ORIENTED_EDGE('',*,*,#221,.T.);
#378=ORIENTED_EDGE('',*,*,#254,.T.);
#379=ORIENTED_EDGE('',*,*,#287,.T.);
#380=ORIENTED_EDGE('',*,*,#320,.F.);
#381=EDGE_LOOP('',(#371,#372,#373,#374,#375,#376,#377,#378,#379,#380));
#382=FACE_OUTER_BOUND('',#381,.T.);
#383=CARTESIAN_POINT('',(0.0677941250000,-0.398750000000,0.0350000000000));
#384=DIRECTION('',(-0.0,1.0,-0.0));
#385=DIRECTION('',(-1.0,-0.0,0.0));
#386=AXIS2_PLACEMENT_3D('',#383,#384,#385);
#387=PLANE('',#386);
#388=ADVANCED_FACE('',(#382),#387,.F.);
#389=CLOSED_SHELL('',(#70,#103,#134,#167,#198,#231,#264,#297,#330,#352,#370,#388));
#390=MANIFOLD_SOLID_BREP('',#389);
#391=COLOUR_RGB('',1.0,0.0,0.0);
#392=FILL_AREA_STYLE_COLOUR('',#391);
#393=FILL_AREA_STYLE('',(#392));
#394=SURFACE_STYLE_FILL_AREA(#393);
#395=SURFACE_SIDE_STYLE('',(#394));
#396=SURFACE_STYLE_USAGE(.BOTH.,#395);
#397=PRESENTATION_STYLE_ASSIGNMENT((#396));
#398=STYLED_ITEM('',(#397),#390);
#399=ADVANCED_BREP_SHAPE_REPRESENTATION('',(#390,#23),#18);
#400=SHAPE_DEFINITION_REPRESENTATION(#30,#399);
#401=DERIVED_UNIT_ELEMENT(#12,3.0);
#402=VOLUME_UNIT((#401));
#403=NAME_ATTRIBUTE('CUBIC MILLIMETRE',#402);
#404=DERIVED_UNIT_ELEMENT(#12,2.0);
#405=AREA_UNIT((#404));
#406=NAME_ATTRIBUTE('SQUARE MILLIMETRE',#405);
#407=SHAPE_ASPECT('#407','solid #390',#30,.F.);
#408=GEOMETRIC_ITEM_SPECIFIC_USAGE('Shape for Validation Properties','',#407,#399,#390);
#409=MEASURE_REPRESENTATION_ITEM('volume measure',VOLUME_MEASURE(0.268253942002297),#402);
#410=REPRESENTATION('volume',(#409),#18);
#411=PROPERTY_DEFINITION('volume of #390','geometric validation property',#407);
#412=PROPERTY_DEFINITION_REPRESENTATION(#411,#410);
#413=MEASURE_REPRESENTATION_ITEM('surface area measure',AREA_MEASURE(15.7520391489743),#405);
#414=REPRESENTATION('surface area',(#413),#18);
#415=PROPERTY_DEFINITION('area of #390','geometric validation property',#407);
#416=PROPERTY_DEFINITION_REPRESENTATION(#415,#414);
#417=CARTESIAN_POINT('centre point',(0.0657575405789,2.60125000000,0.303422829731));
#418=REPRESENTATION('centroid',(#417),#18);
#419=PROPERTY_DEFINITION('centroid of #390','geometric validation property',#407);
#420=PROPERTY_DEFINITION_REPRESENTATION(#419,#418);
#421=CARTESIAN_POINT('bounding box corner point',(0.0,-0.398750000000,-0.0));
#422=CARTESIAN_POINT('bounding box corner point',(0.175000060238,5.60125000000,0.780000000000));
#423=REPRESENTATION('bounding box',(#421,#422),#18);
#424=PROPERTY_DEFINITION('bounding box of #390','geometric validation property',#407);
#425=PROPERTY_DEFINITION_REPRESENTATION(#424,#423);
#426=PRESENTATION_LAYER_ASSIGNMENT('1','Unnamed [1]',(#390));
ENDSEC;
END-ISO-10303-21;
