ISO-10303-21;
HEADER;
FILE_DESCRIPTION(('', 'CAx-IF Rec.Pracs.---Representation and Presentation of Product Manufacturing Information (PMI)---4.0---2014-10-13'),'2;1');
FILE_NAME('SG2674.STP', '2024-11-05T13:10:04',(''), (''), 'Kubotek Kosmos 3D Framework Version 6.0.14858.14858', 'Kubotek Kosmos 3D Framework', '');
FILE_SCHEMA(('AP242_MANAGED_MODEL_BASED_3D_ENGINEERING_MIM_LF  { 1 0 10303 442 4 1 4 }'));
ENDSEC;
DATA;
#1=PRODUCT_DEFINITION_CONTEXT('',#4,'design');
#2=PRODUCT_CONTEXT('',#4,'mechanical');
#3=APPLICATION_PROTOCOL_DEFINITION('international standard','ap242_managed_model_based_3d_engineering',2011,#4);
#4=APPLICATION_CONTEXT('managed model based 3d engineering');
#10=DIMENSIONAL_EXPONENTS(1.0,0.0,0.0,0.0,0.0,0.0,0.0);
#11=DIMENSIONAL_EXPONENTS(0.0,0.0,0.0,0.0,0.0,0.0,0.0);
#12=(LENGTH_UNIT()NAMED_UNIT(*)SI_UNIT(.MILLI.,.METRE.));
#13=(NAMED_UNIT(*)PLANE_ANGLE_UNIT()SI_UNIT($,.RADIAN.));
#14=(NAMED_UNIT(*)SI_UNIT($,.STERADIAN.)SOLID_ANGLE_UNIT());
#15=LENGTH_MEASURE_WITH_UNIT(LENGTH_MEASURE(25.4),#12);
#16=(CONVERSION_BASED_UNIT('INCH',#15)LENGTH_UNIT()NAMED_UNIT(#10));
#17=UNCERTAINTY_MEASURE_WITH_UNIT(LENGTH_MEASURE(1.0E-006),#16,'','');
#18=(GEOMETRIC_REPRESENTATION_CONTEXT(3)GLOBAL_UNCERTAINTY_ASSIGNED_CONTEXT((#17))GLOBAL_UNIT_ASSIGNED_CONTEXT((#16,#13,#14))REPRESENTATION_CONTEXT('NONE','WORKSPACE'));
#20=CARTESIAN_POINT('',(0.0,0.0,0.0));
#21=DIRECTION('',(0.0,0.0,1.0));
#22=DIRECTION('',(1.0,0.0,0.0));
#23=AXIS2_PLACEMENT_3D('',#20,#21,#22);
#24=PRODUCT('','','',(#2));
#25=PRODUCT_DEFINITION_FORMATION_WITH_SPECIFIED_SOURCE('','',#24,.NOT_KNOWN.);
#26=PRODUCT_CATEGORY('Part','');
#27=PRODUCT_RELATED_PRODUCT_CATEGORY('detail','',(#24));
#28=PRODUCT_CATEGORY_RELATIONSHIP('','',#26,#27);
#29=PRODUCT_DEFINITION('','',#25,#1);
#30=PRODUCT_DEFINITION_SHAPE('NONE','NONE',#29);
#31=CARTESIAN_POINT('',(-0.596000000000,0.0400000000000,-0.0));
#32=VERTEX_POINT('',#31);
#33=CARTESIAN_POINT('',(-0.596000000000,6.04000000000,-0.0));
#34=VERTEX_POINT('',#33);
#35=CARTESIAN_POINT('',(-0.596000000000,0.0400000000000,-0.0));
#36=DIRECTION('',(0.0,1.0,0.0));
#37=VECTOR('',#36,1.0);
#38=LINE('',#35,#37);
#39=EDGE_CURVE('',#32,#34,#38,.T.);
#40=ORIENTED_EDGE('',*,*,#39,.T.);
#41=CARTESIAN_POINT('',(-0.596000000000,6.04000000000,-0.0400000000000));
#42=VERTEX_POINT('',#41);
#43=CARTESIAN_POINT('',(-0.596000000000,6.04000000000,-0.0200000000000));
#44=DIRECTION('',(0.0,-1.0,0.0));
#45=DIRECTION('',(1.0,0.0,0.0));
#46=AXIS2_PLACEMENT_3D('',#43,#44,#45);
#47=CIRCLE('',#46,0.02);
#48=EDGE_CURVE('',#34,#42,#47,.T.);
#49=ORIENTED_EDGE('',*,*,#48,.T.);
#50=CARTESIAN_POINT('',(-0.596000000000,0.0400000000000,-0.0400000000000));
#51=VERTEX_POINT('',#50);
#52=CARTESIAN_POINT('',(-0.596000000000,0.0400000000000,-0.0400000000000));
#53=DIRECTION('',(0.0,1.0,0.0));
#54=VECTOR('',#53,1.0);
#55=LINE('',#52,#54);
#56=EDGE_CURVE('',#51,#42,#55,.T.);
#57=ORIENTED_EDGE('',*,*,#56,.F.);
#58=CARTESIAN_POINT('',(-0.596000000000,0.0400000000000,-0.0200000000000));
#59=DIRECTION('',(0.0,-1.0,0.0));
#60=DIRECTION('',(1.0,0.0,0.0));
#61=AXIS2_PLACEMENT_3D('',#58,#59,#60);
#62=CIRCLE('',#61,0.02);
#63=EDGE_CURVE('',#32,#51,#62,.T.);
#64=ORIENTED_EDGE('',*,*,#63,.F.);
#65=EDGE_LOOP('',(#40,#49,#57,#64));
#66=FACE_OUTER_BOUND('',#65,.T.);
#67=CARTESIAN_POINT('',(-0.596000000000,0.0400000000000,-0.0200000000000));
#68=DIRECTION('',(0.0,1.0,0.0));
#69=DIRECTION('',(1.0,-0.0,0.0));
#70=AXIS2_PLACEMENT_3D('',#67,#68,#69);
#71=CYLINDRICAL_SURFACE('',#70,0.02);
#72=ADVANCED_FACE('',(#66),#71,.T.);
#73=ORIENTED_EDGE('',*,*,#56,.T.);
#74=CARTESIAN_POINT('',(0.596000000000,6.04000000000,-0.0400000000000));
#75=VERTEX_POINT('',#74);
#76=CARTESIAN_POINT('',(-0.596000000000,6.04000000000,-0.0400000000000));
#77=DIRECTION('',(1.0,0.0,0.0));
#78=VECTOR('',#77,1.0);
#79=LINE('',#76,#78);
#80=EDGE_CURVE('',#42,#75,#79,.T.);
#81=ORIENTED_EDGE('',*,*,#80,.T.);
#82=CARTESIAN_POINT('',(0.596000000000,0.0400000000000,-0.0400000000000));
#83=VERTEX_POINT('',#82);
#84=CARTESIAN_POINT('',(0.596000000000,0.0400000000000,-0.0400000000000));
#85=DIRECTION('',(0.0,1.0,0.0));
#86=VECTOR('',#85,1.0);
#87=LINE('',#84,#86);
#88=EDGE_CURVE('',#83,#75,#87,.T.);
#89=ORIENTED_EDGE('',*,*,#88,.F.);
#90=CARTESIAN_POINT('',(-0.596000000000,0.0400000000000,-0.0400000000000));
#91=DIRECTION('',(1.0,0.0,0.0));
#92=VECTOR('',#91,1.0);
#93=LINE('',#90,#92);
#94=EDGE_CURVE('',#51,#83,#93,.T.);
#95=ORIENTED_EDGE('',*,*,#94,.F.);
#96=EDGE_LOOP('',(#73,#81,#89,#95));
#97=FACE_OUTER_BOUND('',#96,.T.);
#98=CARTESIAN_POINT('',(-0.0,0.0400000000000,-0.0400000000000));
#99=DIRECTION('',(0.0,0.0,-1.0));
#100=DIRECTION('',(-1.0,-0.0,-0.0));
#101=AXIS2_PLACEMENT_3D('',#98,#99,#100);
#102=PLANE('',#101);
#103=ADVANCED_FACE('',(#97),#102,.T.);
#104=ORIENTED_EDGE('',*,*,#88,.T.);
#105=CARTESIAN_POINT('',(0.596000000000,6.04000000000,-0.0));
#106=VERTEX_POINT('',#105);
#107=CARTESIAN_POINT('',(0.596000000000,6.04000000000,-0.0200000000000));
#108=DIRECTION('',(0.0,-1.0,0.0));
#109=DIRECTION('',(1.0,0.0,0.0));
#110=AXIS2_PLACEMENT_3D('',#107,#108,#109);
#111=CIRCLE('',#110,0.02);
#112=EDGE_CURVE('',#75,#106,#111,.T.);
#113=ORIENTED_EDGE('',*,*,#112,.T.);
#114=CARTESIAN_POINT('',(0.596000000000,0.0400000000000,-0.0));
#115=VERTEX_POINT('',#114);
#116=CARTESIAN_POINT('',(0.596000000000,0.0400000000000,-0.0));
#117=DIRECTION('',(0.0,1.0,0.0));
#118=VECTOR('',#117,1.0);
#119=LINE('',#116,#118);
#120=EDGE_CURVE('',#115,#106,#119,.T.);
#121=ORIENTED_EDGE('',*,*,#120,.F.);
#122=CARTESIAN_POINT('',(0.596000000000,0.0400000000000,-0.0200000000000));
#123=DIRECTION('',(0.0,-1.0,0.0));
#124=DIRECTION('',(1.0,0.0,0.0));
#125=AXIS2_PLACEMENT_3D('',#122,#123,#124);
#126=CIRCLE('',#125,0.02);
#127=EDGE_CURVE('',#83,#115,#126,.T.);
#128=ORIENTED_EDGE('',*,*,#127,.F.);
#129=EDGE_LOOP('',(#104,#113,#121,#128));
#130=FACE_OUTER_BOUND('',#129,.T.);
#131=CARTESIAN_POINT('',(0.596000000000,0.0400000000000,-0.0200000000000));
#132=DIRECTION('',(0.0,1.0,0.0));
#133=DIRECTION('',(-1.0,0.0,0.0));
#134=AXIS2_PLACEMENT_3D('',#131,#132,#133);
#135=CYLINDRICAL_SURFACE('',#134,0.02);
#136=ADVANCED_FACE('',(#130),#135,.T.);
#137=ORIENTED_EDGE('',*,*,#120,.T.);
#138=CARTESIAN_POINT('',(0.0200000000000,6.04000000000,0.0));
#139=VERTEX_POINT('',#138);
#140=CARTESIAN_POINT('',(0.0200000000000,6.04000000000,0.0));
#141=DIRECTION('',(-1.0,-0.0,-0.0));
#142=VECTOR('',#141,1.0);
#143=LINE('',#140,#142);
#144=EDGE_CURVE('',#106,#139,#143,.T.);
#145=ORIENTED_EDGE('',*,*,#144,.T.);
#146=CARTESIAN_POINT('',(0.0200000000000,0.0400000000000,0.0));
#147=VERTEX_POINT('',#146);
#148=CARTESIAN_POINT('',(0.0200000000000,0.0400000000000,0.0));
#149=DIRECTION('',(0.0,1.0,0.0));
#150=VECTOR('',#149,1.0);
#151=LINE('',#148,#150);
#152=EDGE_CURVE('',#147,#139,#151,.T.);
#153=ORIENTED_EDGE('',*,*,#152,.F.);
#154=CARTESIAN_POINT('',(0.0200000000000,0.0400000000000,0.0));
#155=DIRECTION('',(1.0,0.0,0.0));
#156=VECTOR('',#155,1.0);
#157=LINE('',#154,#156);
#158=EDGE_CURVE('',#147,#115,#157,.T.);
#159=ORIENTED_EDGE('',*,*,#158,.T.);
#160=EDGE_LOOP('',(#137,#145,#153,#159));
#161=FACE_OUTER_BOUND('',#160,.T.);
#162=CARTESIAN_POINT('',(0.308000000000,0.0400000000000,0.0));
#163=DIRECTION('',(0.0,0.0,1.0));
#164=DIRECTION('',(1.0,0.0,0.0));
#165=AXIS2_PLACEMENT_3D('',#162,#163,#164);
#166=PLANE('',#165);
#167=ADVANCED_FACE('',(#161),#166,.T.);
#168=ORIENTED_EDGE('',*,*,#152,.T.);
#169=CARTESIAN_POINT('',(0.0200000000000,6.04000000000,0.169806093540));
#170=VERTEX_POINT('',#169);
#171=CARTESIAN_POINT('',(0.0200000000000,6.04000000000,0.169806093540));
#172=DIRECTION('',(0.0,0.0,1.0));
#173=VECTOR('',#172,1.0);
#174=LINE('',#171,#173);
#175=EDGE_CURVE('',#139,#170,#174,.T.);
#176=ORIENTED_EDGE('',*,*,#175,.T.);
#177=CARTESIAN_POINT('',(0.0200000000000,0.0400000000000,0.169806093540));
#178=VERTEX_POINT('',#177);
#179=CARTESIAN_POINT('',(0.0200000000000,0.0400000000000,0.169806093540));
#180=DIRECTION('',(0.0,1.0,0.0));
#181=VECTOR('',#180,1.0);
#182=LINE('',#179,#181);
#183=EDGE_CURVE('',#178,#170,#182,.T.);
#184=ORIENTED_EDGE('',*,*,#183,.F.);
#185=CARTESIAN_POINT('',(0.0200000000000,0.0400000000000,0.169806093540));
#186=DIRECTION('',(0.0,-0.0,-1.0));
#187=VECTOR('',#186,1.0);
#188=LINE('',#185,#187);
#189=EDGE_CURVE('',#178,#147,#188,.T.);
#190=ORIENTED_EDGE('',*,*,#189,.T.);
#191=EDGE_LOOP('',(#168,#176,#184,#190));
#192=FACE_OUTER_BOUND('',#191,.T.);
#193=CARTESIAN_POINT('',(0.0200000000000,0.0400000000000,0.0849030467701));
#194=DIRECTION('',(1.0,-0.0,0.0));
#195=DIRECTION('',(0.0,-0.0,-1.0));
#196=AXIS2_PLACEMENT_3D('',#193,#194,#195);
#197=PLANE('',#196);
#198=ADVANCED_FACE('',(#192),#197,.T.);
#199=ORIENTED_EDGE('',*,*,#183,.T.);
#200=CARTESIAN_POINT('',(0.363088856342,6.04000000000,0.101322107511));
#201=VERTEX_POINT('',#200);
#202=CARTESIAN_POINT('',(0.000401015375641,6.04000000000,-0.822012784163));
#203=DIRECTION('',(0.0,1.0,-0.0));
#204=DIRECTION('',(1.0,0.0,0.0));
#205=AXIS2_PLACEMENT_3D('',#202,#203,#204);
#206=CIRCLE('',#205,0.992013);
#207=EDGE_CURVE('',#170,#201,#206,.T.);
#208=ORIENTED_EDGE('',*,*,#207,.T.);
#209=CARTESIAN_POINT('',(0.363088856342,0.0400000000000,0.101322107511));
#210=VERTEX_POINT('',#209);
#211=CARTESIAN_POINT('',(0.363088856342,0.0400000000000,0.101322107511));
#212=DIRECTION('',(0.0,1.0,0.0));
#213=VECTOR('',#212,1.0);
#214=LINE('',#211,#213);
#215=EDGE_CURVE('',#210,#201,#214,.T.);
#216=ORIENTED_EDGE('',*,*,#215,.F.);
#217=CARTESIAN_POINT('',(0.000401015375641,0.0400000000000,-0.822012784163));
#218=DIRECTION('',(0.0,-1.0,0.0));
#219=DIRECTION('',(1.0,0.0,0.0));
#220=AXIS2_PLACEMENT_3D('',#217,#218,#219);
#221=CIRCLE('',#220,0.992013);
#222=EDGE_CURVE('',#210,#178,#221,.T.);
#223=ORIENTED_EDGE('',*,*,#222,.T.);
#224=EDGE_LOOP('',(#199,#208,#216,#223));
#225=FACE_OUTER_BOUND('',#224,.T.);
#226=CARTESIAN_POINT('',(0.000401015375641,0.0400000000000,-0.822012784163));
#227=DIRECTION('',(0.0,1.0,0.0));
#228=DIRECTION('',(1.0,-0.0,0.0));
#229=AXIS2_PLACEMENT_3D('',#226,#227,#228);
#230=CYLINDRICAL_SURFACE('',#229,0.992013);
#231=ADVANCED_FACE('',(#225),#230,.F.);
#232=ORIENTED_EDGE('',*,*,#215,.T.);
#233=CARTESIAN_POINT('',(0.377713174409,6.04000000000,0.138552865240));
#234=VERTEX_POINT('',#233);
#235=CARTESIAN_POINT('',(0.370401015376,6.04000000000,0.119937486376));
#236=DIRECTION('',(0.0,-1.0,0.0));
#237=DIRECTION('',(1.0,0.0,0.0));
#238=AXIS2_PLACEMENT_3D('',#235,#236,#237);
#239=CIRCLE('',#238,0.02);
#240=EDGE_CURVE('',#201,#234,#239,.T.);
#241=ORIENTED_EDGE('',*,*,#240,.T.);
#242=CARTESIAN_POINT('',(0.377713174409,0.0400000000000,0.138552865240));
#243=VERTEX_POINT('',#242);
#244=CARTESIAN_POINT('',(0.377713174409,0.0400000000000,0.138552865240));
#245=DIRECTION('',(0.0,1.0,0.0));
#246=VECTOR('',#245,1.0);
#247=LINE('',#244,#246);
#248=EDGE_CURVE('',#243,#234,#247,.T.);
#249=ORIENTED_EDGE('',*,*,#248,.F.);
#250=CARTESIAN_POINT('',(0.370401015376,0.0400000000000,0.119937486376));
#251=DIRECTION('',(0.0,-1.0,0.0));
#252=DIRECTION('',(1.0,0.0,0.0));
#253=AXIS2_PLACEMENT_3D('',#250,#251,#252);
#254=CIRCLE('',#253,0.02);
#255=EDGE_CURVE('',#210,#243,#254,.T.);
#256=ORIENTED_EDGE('',*,*,#255,.F.);
#257=EDGE_LOOP('',(#232,#241,#249,#256));
#258=FACE_OUTER_BOUND('',#257,.T.);
#259=CARTESIAN_POINT('',(0.370401015376,0.0400000000000,0.119937486376));
#260=DIRECTION('',(0.0,1.0,0.0));
#261=DIRECTION('',(-0.930768943224,0.0,0.365607951677));
#262=AXIS2_PLACEMENT_3D('',#259,#260,#261);
#263=CYLINDRICAL_SURFACE('',#262,0.02);
#264=ADVANCED_FACE('',(#258),#263,.T.);
#265=ORIENTED_EDGE('',*,*,#248,.T.);
#266=CARTESIAN_POINT('',(-0.376911143658,6.04000000000,0.138552865240));
#267=VERTEX_POINT('',#266);
#268=CARTESIAN_POINT('',(0.000401015375641,6.04000000000,-0.822012784163));
#269=DIRECTION('',(0.0,-1.0,0.0));
#270=DIRECTION('',(1.0,0.0,0.0));
#271=AXIS2_PLACEMENT_3D('',#268,#269,#270);
#272=CIRCLE('',#271,1.032013);
#273=EDGE_CURVE('',#234,#267,#272,.T.);
#274=ORIENTED_EDGE('',*,*,#273,.T.);
#275=CARTESIAN_POINT('',(-0.376911143658,0.0400000000000,0.138552865240));
#276=VERTEX_POINT('',#275);
#277=CARTESIAN_POINT('',(-0.376911143658,0.0400000000000,0.138552865240));
#278=DIRECTION('',(0.0,1.0,0.0));
#279=VECTOR('',#278,1.0);
#280=LINE('',#277,#279);
#281=EDGE_CURVE('',#276,#267,#280,.T.);
#282=ORIENTED_EDGE('',*,*,#281,.F.);
#283=CARTESIAN_POINT('',(0.000401015375641,0.0400000000000,-0.822012784163));
#284=DIRECTION('',(0.0,-1.0,0.0));
#285=DIRECTION('',(1.0,0.0,0.0));
#286=AXIS2_PLACEMENT_3D('',#283,#284,#285);
#287=CIRCLE('',#286,1.032013);
#288=EDGE_CURVE('',#243,#276,#287,.T.);
#289=ORIENTED_EDGE('',*,*,#288,.F.);
#290=EDGE_LOOP('',(#265,#274,#282,#289));
#291=FACE_OUTER_BOUND('',#290,.T.);
#292=CARTESIAN_POINT('',(0.000401015375641,0.0400000000000,-0.822012784163));
#293=DIRECTION('',(0.0,1.0,0.0));
#294=DIRECTION('',(1.0,-0.0,0.0));
#295=AXIS2_PLACEMENT_3D('',#292,#293,#294);
#296=CYLINDRICAL_SURFACE('',#295,1.032013);
#297=ADVANCED_FACE('',(#291),#296,.T.);
#298=ORIENTED_EDGE('',*,*,#281,.T.);
#299=CARTESIAN_POINT('',(-0.362286825591,6.04000000000,0.101322107511));
#300=VERTEX_POINT('',#299);
#301=CARTESIAN_POINT('',(-0.369598984624,6.04000000000,0.119937486376));
#302=DIRECTION('',(0.0,-1.0,0.0));
#303=DIRECTION('',(1.0,0.0,0.0));
#304=AXIS2_PLACEMENT_3D('',#301,#302,#303);
#305=CIRCLE('',#304,0.02);
#306=EDGE_CURVE('',#267,#300,#305,.T.);
#307=ORIENTED_EDGE('',*,*,#306,.T.);
#308=CARTESIAN_POINT('',(-0.362286825591,0.0400000000000,0.101322107511));
#309=VERTEX_POINT('',#308);
#310=CARTESIAN_POINT('',(-0.362286825591,0.0400000000000,0.101322107511));
#311=DIRECTION('',(0.0,1.0,0.0));
#312=VECTOR('',#311,1.0);
#313=LINE('',#310,#312);
#314=EDGE_CURVE('',#309,#300,#313,.T.);
#315=ORIENTED_EDGE('',*,*,#314,.F.);
#316=CARTESIAN_POINT('',(-0.369598984624,0.0400000000000,0.119937486376));
#317=DIRECTION('',(0.0,-1.0,0.0));
#318=DIRECTION('',(1.0,0.0,0.0));
#319=AXIS2_PLACEMENT_3D('',#316,#317,#318);
#320=CIRCLE('',#319,0.02);
#321=EDGE_CURVE('',#276,#309,#320,.T.);
#322=ORIENTED_EDGE('',*,*,#321,.F.);
#323=EDGE_LOOP('',(#298,#307,#315,#322));
#324=FACE_OUTER_BOUND('',#323,.T.);
#325=CARTESIAN_POINT('',(-0.369598984624,0.0400000000000,0.119937486376));
#326=DIRECTION('',(0.0,1.0,0.0));
#327=DIRECTION('',(1.0,-0.0,0.0));
#328=AXIS2_PLACEMENT_3D('',#325,#326,#327);
#329=CYLINDRICAL_SURFACE('',#328,0.02);
#330=ADVANCED_FACE('',(#324),#329,.T.);
#331=ORIENTED_EDGE('',*,*,#314,.T.);
#332=CARTESIAN_POINT('',(-0.0200000000000,6.04000000000,0.169789920489));
#333=VERTEX_POINT('',#332);
#334=CARTESIAN_POINT('',(0.000401015375641,6.04000000000,-0.822012784163));
#335=DIRECTION('',(0.0,1.0,-0.0));
#336=DIRECTION('',(1.0,0.0,0.0));
#337=AXIS2_PLACEMENT_3D('',#334,#335,#336);
#338=CIRCLE('',#337,0.992013);
#339=EDGE_CURVE('',#300,#333,#338,.T.);
#340=ORIENTED_EDGE('',*,*,#339,.T.);
#341=CARTESIAN_POINT('',(-0.0200000000000,0.0400000000000,0.169789920489));
#342=VERTEX_POINT('',#341);
#343=CARTESIAN_POINT('',(-0.0200000000000,0.0400000000000,0.169789920489));
#344=DIRECTION('',(0.0,1.0,0.0));
#345=VECTOR('',#344,1.0);
#346=LINE('',#343,#345);
#347=EDGE_CURVE('',#342,#333,#346,.T.);
#348=ORIENTED_EDGE('',*,*,#347,.F.);
#349=CARTESIAN_POINT('',(0.000401015375641,0.0400000000000,-0.822012784163));
#350=DIRECTION('',(0.0,-1.0,0.0));
#351=DIRECTION('',(1.0,0.0,0.0));
#352=AXIS2_PLACEMENT_3D('',#349,#350,#351);
#353=CIRCLE('',#352,0.992013);
#354=EDGE_CURVE('',#342,#309,#353,.T.);
#355=ORIENTED_EDGE('',*,*,#354,.T.);
#356=EDGE_LOOP('',(#331,#340,#348,#355));
#357=FACE_OUTER_BOUND('',#356,.T.);
#358=CARTESIAN_POINT('',(0.000401015375641,0.0400000000000,-0.822012784163));
#359=DIRECTION('',(0.0,1.0,0.0));
#360=DIRECTION('',(1.0,-0.0,0.0));
#361=AXIS2_PLACEMENT_3D('',#358,#359,#360);
#362=CYLINDRICAL_SURFACE('',#361,0.992013);
#363=ADVANCED_FACE('',(#357),#362,.F.);
#364=ORIENTED_EDGE('',*,*,#347,.T.);
#365=CARTESIAN_POINT('',(-0.0200000000000,6.04000000000,0.0));
#366=VERTEX_POINT('',#365);
#367=CARTESIAN_POINT('',(-0.0200000000000,6.04000000000,0.169789920489));
#368=DIRECTION('',(0.0,-0.0,-1.0));
#369=VECTOR('',#368,1.0);
#370=LINE('',#367,#369);
#371=EDGE_CURVE('',#333,#366,#370,.T.);
#372=ORIENTED_EDGE('',*,*,#371,.T.);
#373=CARTESIAN_POINT('',(-0.0200000000000,0.0400000000000,0.0));
#374=VERTEX_POINT('',#373);
#375=CARTESIAN_POINT('',(-0.0200000000000,0.0400000000000,0.0));
#376=DIRECTION('',(0.0,1.0,0.0));
#377=VECTOR('',#376,1.0);
#378=LINE('',#375,#377);
#379=EDGE_CURVE('',#374,#366,#378,.T.);
#380=ORIENTED_EDGE('',*,*,#379,.F.);
#381=CARTESIAN_POINT('',(-0.0200000000000,0.0400000000000,0.169789920489));
#382=DIRECTION('',(0.0,-0.0,-1.0));
#383=VECTOR('',#382,1.0);
#384=LINE('',#381,#383);
#385=EDGE_CURVE('',#342,#374,#384,.T.);
#386=ORIENTED_EDGE('',*,*,#385,.F.);
#387=EDGE_LOOP('',(#364,#372,#380,#386));
#388=FACE_OUTER_BOUND('',#387,.T.);
#389=CARTESIAN_POINT('',(-0.0200000000000,0.0400000000000,0.0848949602443));
#390=DIRECTION('',(-1.0,0.0,-0.0));
#391=DIRECTION('',(-0.0,0.0,1.0));
#392=AXIS2_PLACEMENT_3D('',#389,#390,#391);
#393=PLANE('',#392);
#394=ADVANCED_FACE('',(#388),#393,.T.);
#395=ORIENTED_EDGE('',*,*,#379,.T.);
#396=CARTESIAN_POINT('',(-0.596000000000,6.04000000000,0.0));
#397=DIRECTION('',(-1.0,-0.0,-0.0));
#398=VECTOR('',#397,1.0);
#399=LINE('',#396,#398);
#400=EDGE_CURVE('',#366,#34,#399,.T.);
#401=ORIENTED_EDGE('',*,*,#400,.T.);
#402=ORIENTED_EDGE('',*,*,#39,.F.);
#403=CARTESIAN_POINT('',(-0.596000000000,0.0400000000000,0.0));
#404=DIRECTION('',(1.0,0.0,0.0));
#405=VECTOR('',#404,1.0);
#406=LINE('',#403,#405);
#407=EDGE_CURVE('',#32,#374,#406,.T.);
#408=ORIENTED_EDGE('',*,*,#407,.T.);
#409=EDGE_LOOP('',(#395,#401,#402,#408));
#410=FACE_OUTER_BOUND('',#409,.T.);
#411=CARTESIAN_POINT('',(-0.308000000000,0.0400000000000,0.0));
#412=DIRECTION('',(0.0,0.0,1.0));
#413=DIRECTION('',(1.0,0.0,0.0));
#414=AXIS2_PLACEMENT_3D('',#411,#412,#413);
#415=PLANE('',#414);
#416=ADVANCED_FACE('',(#410),#415,.T.);
#417=ORIENTED_EDGE('',*,*,#80,.F.);
#418=ORIENTED_EDGE('',*,*,#48,.F.);
#419=ORIENTED_EDGE('',*,*,#400,.F.);
#420=ORIENTED_EDGE('',*,*,#371,.F.);
#421=ORIENTED_EDGE('',*,*,#339,.F.);
#422=ORIENTED_EDGE('',*,*,#306,.F.);
#423=ORIENTED_EDGE('',*,*,#273,.F.);
#424=ORIENTED_EDGE('',*,*,#240,.F.);
#425=ORIENTED_EDGE('',*,*,#207,.F.);
#426=ORIENTED_EDGE('',*,*,#175,.F.);
#427=ORIENTED_EDGE('',*,*,#144,.F.);
#428=ORIENTED_EDGE('',*,*,#112,.F.);
#429=EDGE_LOOP('',(#417,#418,#419,#420,#421,#422,#423,#424,#425,#426,#427,#428));
#430=FACE_OUTER_BOUND('',#429,.T.);
#431=CARTESIAN_POINT('',(-0.416100800000,6.04000000000,0.0));
#432=DIRECTION('',(0.0,-1.0,0.0));
#433=DIRECTION('',(1.0,0.0,0.0));
#434=AXIS2_PLACEMENT_3D('',#431,#432,#433);
#435=PLANE('',#434);
#436=ADVANCED_FACE('',(#430),#435,.F.);
#437=ORIENTED_EDGE('',*,*,#385,.T.);
#438=ORIENTED_EDGE('',*,*,#407,.F.);
#439=ORIENTED_EDGE('',*,*,#63,.T.);
#440=ORIENTED_EDGE('',*,*,#94,.T.);
#441=ORIENTED_EDGE('',*,*,#127,.T.);
#442=ORIENTED_EDGE('',*,*,#158,.F.);
#443=ORIENTED_EDGE('',*,*,#189,.F.);
#444=ORIENTED_EDGE('',*,*,#222,.F.);
#445=ORIENTED_EDGE('',*,*,#255,.T.);
#446=ORIENTED_EDGE('',*,*,#288,.T.);
#447=ORIENTED_EDGE('',*,*,#321,.T.);
#448=ORIENTED_EDGE('',*,*,#354,.F.);
#449=EDGE_LOOP('',(#437,#438,#439,#440,#441,#442,#443,#444,#445,#446,#447,#448));
#450=FACE_OUTER_BOUND('',#449,.T.);
#451=CARTESIAN_POINT('',(-0.416100800000,0.0400000000000,0.0));
#452=DIRECTION('',(0.0,-1.0,-0.0));
#453=DIRECTION('',(1.0,0.0,0.0));
#454=AXIS2_PLACEMENT_3D('',#451,#452,#453);
#455=PLANE('',#454);
#456=ADVANCED_FACE('',(#450),#455,.T.);
#457=CLOSED_SHELL('',(#72,#103,#136,#167,#198,#231,#264,#297,#330,#363,#394,#416,#436,#456));
#458=MANIFOLD_SOLID_BREP('',#457);
#459=COLOUR_RGB('',1.0,0.0,0.0);
#460=FILL_AREA_STYLE_COLOUR('',#459);
#461=FILL_AREA_STYLE('',(#460));
#462=SURFACE_STYLE_FILL_AREA(#461);
#463=SURFACE_SIDE_STYLE('',(#462));
#464=SURFACE_STYLE_USAGE(.BOTH.,#463);
#465=PRESENTATION_STYLE_ASSIGNMENT((#464));
#466=STYLED_ITEM('',(#465),#458);
#467=ADVANCED_BREP_SHAPE_REPRESENTATION('',(#458,#23),#18);
#468=SHAPE_DEFINITION_REPRESENTATION(#30,#467);
#469=DERIVED_UNIT_ELEMENT(#12,3.0);
#470=VOLUME_UNIT((#469));
#471=NAME_ATTRIBUTE('CUBIC MILLIMETRE',#470);
#472=DERIVED_UNIT_ELEMENT(#12,2.0);
#473=AREA_UNIT((#472));
#474=NAME_ATTRIBUTE('SQUARE MILLIMETRE',#473);
#475=SHAPE_ASPECT('#475','solid #458',#30,.F.);
#476=GEOMETRIC_ITEM_SPECIFIC_USAGE('Shape for Validation Properties','',#475,#467,#458);
#477=MEASURE_REPRESENTATION_ITEM('volume measure',VOLUME_MEASURE(0.519616041778308),#470);
#478=REPRESENTATION('volume',(#477),#18);
#479=PROPERTY_DEFINITION('volume of #458','geometric validation property',#475);
#480=PROPERTY_DEFINITION_REPRESENTATION(#479,#478);
#481=MEASURE_REPRESENTATION_ITEM('surface area measure',AREA_MEASURE(26.6249606522152),#473);
#482=REPRESENTATION('surface area',(#481),#18);
#483=PROPERTY_DEFINITION('area of #458','geometric validation property',#475);
#484=PROPERTY_DEFINITION_REPRESENTATION(#483,#482);
#485=CARTESIAN_POINT('centre point',(0.000148756664082,3.04000000000,0.0535460960078));
#486=REPRESENTATION('centroid',(#485),#18);
#487=PROPERTY_DEFINITION('centroid of #458','geometric validation property',#475);
#488=PROPERTY_DEFINITION_REPRESENTATION(#487,#486);
#489=CARTESIAN_POINT('bounding box corner point',(-0.616000000000,0.0400000000000,-0.0400000000000));
#490=CARTESIAN_POINT('bounding box corner point',(0.616000000000,6.04000000000,0.210000215837));
#491=REPRESENTATION('bounding box',(#489,#490),#18);
#492=PROPERTY_DEFINITION('bounding box of #458','geometric validation property',#475);
#493=PROPERTY_DEFINITION_REPRESENTATION(#492,#491);
#494=PRESENTATION_LAYER_ASSIGNMENT('1','Unnamed [1]',(#458));
ENDSEC;
END-ISO-10303-21;
