ISO-10303-21;
HEADER;
FILE_DESCRIPTION(('', 'CAx-IF Rec.Pracs.---Representation and Presentation of Product Manufacturing Information (PMI)---4.0---2014-10-13'),'2;1');
FILE_NAME('SG2673.STP', '2024-11-05T13:04:44',(''), (''), 'Kubotek Kosmos 3D Framework Version 6.0.14858.14858', 'Kubotek Kosmos 3D Framework', '');
FILE_SCHEMA(('AP242_MANAGED_MODEL_BASED_3D_ENGINEERING_MIM_LF  { 1 0 10303 442 4 1 4 }'));
ENDSEC;
DATA;
#1=PRODUCT_DEFINITION_CONTEXT('',#4,'design');
#2=PRODUCT_CONTEXT('',#4,'mechanical');
#3=APPLICATION_PROTOCOL_DEFINITION('international standard','ap242_managed_model_based_3d_engineering',2011,#4);
#4=APPLICATION_CONTEXT('managed model based 3d engineering');
#10=DIMENSIONAL_EXPONENTS(1.0,0.0,0.0,0.0,0.0,0.0,0.0);
#11=DIMENSIONAL_EXPONENTS(0.0,0.0,0.0,0.0,0.0,0.0,0.0);
#12=(LENGTH_UNIT()NAMED_UNIT(*)SI_UNIT(.MILLI.,.METRE.));
#13=(NAMED_UNIT(*)PLANE_ANGLE_UNIT()SI_UNIT($,.RADIAN.));
#14=(NAMED_UNIT(*)SI_UNIT($,.STERADIAN.)SOLID_ANGLE_UNIT());
#15=LENGTH_MEASURE_WITH_UNIT(LENGTH_MEASURE(25.4),#12);
#16=(CONVERSION_BASED_UNIT('INCH',#15)LENGTH_UNIT()NAMED_UNIT(#10));
#17=UNCERTAINTY_MEASURE_WITH_UNIT(LENGTH_MEASURE(1.0E-006),#16,'','');
#18=(GEOMETRIC_REPRESENTATION_CONTEXT(3)GLOBAL_UNCERTAINTY_ASSIGNED_CONTEXT((#17))GLOBAL_UNIT_ASSIGNED_CONTEXT((#16,#13,#14))REPRESENTATION_CONTEXT('NONE','WORKSPACE'));
#20=CARTESIAN_POINT('',(0.0,0.0,0.0));
#21=DIRECTION('',(0.0,0.0,1.0));
#22=DIRECTION('',(1.0,0.0,0.0));
#23=AXIS2_PLACEMENT_3D('',#20,#21,#22);
#24=PRODUCT('','','',(#2));
#25=PRODUCT_DEFINITION_FORMATION_WITH_SPECIFIED_SOURCE('','',#24,.NOT_KNOWN.);
#26=PRODUCT_CATEGORY('Part','');
#27=PRODUCT_RELATED_PRODUCT_CATEGORY('detail','',(#24));
#28=PRODUCT_CATEGORY_RELATIONSHIP('','',#26,#27);
#29=PRODUCT_DEFINITION('','',#25,#1);
#30=PRODUCT_DEFINITION_SHAPE('NONE','NONE',#29);
#31=CARTESIAN_POINT('',(-0.0250000000000,0.0,0.0500000000000));
#32=VERTEX_POINT('',#31);
#33=CARTESIAN_POINT('',(-0.0250000000000,6.0,0.0500000000000));
#34=VERTEX_POINT('',#33);
#35=CARTESIAN_POINT('',(-0.0250000000000,0.0,0.0500000000000));
#36=DIRECTION('',(0.0,1.0,-0.0));
#37=VECTOR('',#36,1.0);
#38=LINE('',#35,#37);
#39=EDGE_CURVE('',#32,#34,#38,.T.);
#40=ORIENTED_EDGE('',*,*,#39,.T.);
#41=CARTESIAN_POINT('',(-0.595000000000,6.0,0.0500000000000));
#42=VERTEX_POINT('',#41);
#43=CARTESIAN_POINT('',(-0.595000000000,6.0,0.0500000000000));
#44=DIRECTION('',(-1.0,-0.0,-0.0));
#45=VECTOR('',#44,1.0);
#46=LINE('',#43,#45);
#47=EDGE_CURVE('',#34,#42,#46,.T.);
#48=ORIENTED_EDGE('',*,*,#47,.T.);
#49=CARTESIAN_POINT('',(-0.595000000000,0.0,0.0500000000000));
#50=VERTEX_POINT('',#49);
#51=CARTESIAN_POINT('',(-0.595000000000,0.0,0.0500000000000));
#52=DIRECTION('',(0.0,1.0,-0.0));
#53=VECTOR('',#52,1.0);
#54=LINE('',#51,#53);
#55=EDGE_CURVE('',#50,#42,#54,.T.);
#56=ORIENTED_EDGE('',*,*,#55,.F.);
#57=CARTESIAN_POINT('',(-0.595000000000,0.0,0.0500000000000));
#58=DIRECTION('',(1.0,0.0,0.0));
#59=VECTOR('',#58,1.0);
#60=LINE('',#57,#59);
#61=EDGE_CURVE('',#50,#32,#60,.T.);
#62=ORIENTED_EDGE('',*,*,#61,.T.);
#63=EDGE_LOOP('',(#40,#48,#56,#62));
#64=FACE_OUTER_BOUND('',#63,.T.);
#65=CARTESIAN_POINT('',(-0.310000000000,0.0,0.0500000000000));
#66=DIRECTION('',(-0.0,0.0,1.0));
#67=DIRECTION('',(1.0,0.0,0.0));
#68=AXIS2_PLACEMENT_3D('',#65,#66,#67);
#69=PLANE('',#68);
#70=ADVANCED_FACE('',(#64),#69,.T.);
#71=ORIENTED_EDGE('',*,*,#55,.T.);
#72=CARTESIAN_POINT('',(-0.595000000000,6.0,-0.0));
#73=VERTEX_POINT('',#72);
#74=CARTESIAN_POINT('',(-0.595000000000,6.0,0.0250000000000));
#75=DIRECTION('',(0.0,-1.0,0.0));
#76=DIRECTION('',(1.0,0.0,0.0));
#77=AXIS2_PLACEMENT_3D('',#74,#75,#76);
#78=CIRCLE('',#77,0.025);
#79=EDGE_CURVE('',#42,#73,#78,.T.);
#80=ORIENTED_EDGE('',*,*,#79,.T.);
#81=CARTESIAN_POINT('',(-0.595000000000,0.0,0.0));
#82=VERTEX_POINT('',#81);
#83=CARTESIAN_POINT('',(-0.595000000000,0.0,0.0));
#84=DIRECTION('',(0.0,1.0,-0.0));
#85=VECTOR('',#84,1.0);
#86=LINE('',#83,#85);
#87=EDGE_CURVE('',#82,#73,#86,.T.);
#88=ORIENTED_EDGE('',*,*,#87,.F.);
#89=CARTESIAN_POINT('',(-0.595000000000,0.0,0.0250000000000));
#90=DIRECTION('',(0.0,-1.0,0.0));
#91=DIRECTION('',(1.0,0.0,0.0));
#92=AXIS2_PLACEMENT_3D('',#89,#90,#91);
#93=CIRCLE('',#92,0.025);
#94=EDGE_CURVE('',#50,#82,#93,.T.);
#95=ORIENTED_EDGE('',*,*,#94,.F.);
#96=EDGE_LOOP('',(#71,#80,#88,#95));
#97=FACE_OUTER_BOUND('',#96,.T.);
#98=CARTESIAN_POINT('',(-0.595000000000,0.0,0.0250000000000));
#99=DIRECTION('',(0.0,1.0,-0.0));
#100=DIRECTION('',(1.0,0.0,0.0));
#101=AXIS2_PLACEMENT_3D('',#98,#99,#100);
#102=CYLINDRICAL_SURFACE('',#101,0.025);
#103=ADVANCED_FACE('',(#97),#102,.T.);
#104=ORIENTED_EDGE('',*,*,#87,.T.);
#105=CARTESIAN_POINT('',(0.595000000000,6.0,-0.0));
#106=VERTEX_POINT('',#105);
#107=CARTESIAN_POINT('',(-0.595000000000,6.0,-0.0));
#108=DIRECTION('',(1.0,0.0,0.0));
#109=VECTOR('',#108,1.0);
#110=LINE('',#107,#109);
#111=EDGE_CURVE('',#73,#106,#110,.T.);
#112=ORIENTED_EDGE('',*,*,#111,.T.);
#113=CARTESIAN_POINT('',(0.595000000000,0.0,-0.0));
#114=VERTEX_POINT('',#113);
#115=CARTESIAN_POINT('',(0.595000000000,0.0,-0.0));
#116=DIRECTION('',(0.0,1.0,-0.0));
#117=VECTOR('',#116,1.0);
#118=LINE('',#115,#117);
#119=EDGE_CURVE('',#114,#106,#118,.T.);
#120=ORIENTED_EDGE('',*,*,#119,.F.);
#121=CARTESIAN_POINT('',(-0.595000000000,0.0,-0.0));
#122=DIRECTION('',(1.0,0.0,0.0));
#123=VECTOR('',#122,1.0);
#124=LINE('',#121,#123);
#125=EDGE_CURVE('',#82,#114,#124,.T.);
#126=ORIENTED_EDGE('',*,*,#125,.F.);
#127=EDGE_LOOP('',(#104,#112,#120,#126));
#128=FACE_OUTER_BOUND('',#127,.T.);
#129=CARTESIAN_POINT('',(0.0,0.0,-0.0));
#130=DIRECTION('',(0.0,-0.0,-1.0));
#131=DIRECTION('',(-1.0,-0.0,-0.0));
#132=AXIS2_PLACEMENT_3D('',#129,#130,#131);
#133=PLANE('',#132);
#134=ADVANCED_FACE('',(#128),#133,.T.);
#135=ORIENTED_EDGE('',*,*,#119,.T.);
#136=CARTESIAN_POINT('',(0.595000000000,6.0,0.0500000000000));
#137=VERTEX_POINT('',#136);
#138=CARTESIAN_POINT('',(0.595000000000,6.0,0.0250000000000));
#139=DIRECTION('',(0.0,-1.0,0.0));
#140=DIRECTION('',(1.0,0.0,0.0));
#141=AXIS2_PLACEMENT_3D('',#138,#139,#140);
#142=CIRCLE('',#141,0.025);
#143=EDGE_CURVE('',#106,#137,#142,.T.);
#144=ORIENTED_EDGE('',*,*,#143,.T.);
#145=CARTESIAN_POINT('',(0.595000000000,0.0,0.0500000000000));
#146=VERTEX_POINT('',#145);
#147=CARTESIAN_POINT('',(0.595000000000,0.0,0.0500000000000));
#148=DIRECTION('',(0.0,1.0,-0.0));
#149=VECTOR('',#148,1.0);
#150=LINE('',#147,#149);
#151=EDGE_CURVE('',#146,#137,#150,.T.);
#152=ORIENTED_EDGE('',*,*,#151,.F.);
#153=CARTESIAN_POINT('',(0.595000000000,0.0,0.0250000000000));
#154=DIRECTION('',(0.0,-1.0,0.0));
#155=DIRECTION('',(1.0,0.0,0.0));
#156=AXIS2_PLACEMENT_3D('',#153,#154,#155);
#157=CIRCLE('',#156,0.025);
#158=EDGE_CURVE('',#114,#146,#157,.T.);
#159=ORIENTED_EDGE('',*,*,#158,.F.);
#160=EDGE_LOOP('',(#135,#144,#152,#159));
#161=FACE_OUTER_BOUND('',#160,.T.);
#162=CARTESIAN_POINT('',(0.595000000000,0.0,0.0250000000000));
#163=DIRECTION('',(0.0,1.0,-0.0));
#164=DIRECTION('',(-1.0,0.0,0.0));
#165=AXIS2_PLACEMENT_3D('',#162,#163,#164);
#166=CYLINDRICAL_SURFACE('',#165,0.025);
#167=ADVANCED_FACE('',(#161),#166,.T.);
#168=ORIENTED_EDGE('',*,*,#151,.T.);
#169=CARTESIAN_POINT('',(0.0250000000000,6.0,0.0500000000000));
#170=VERTEX_POINT('',#169);
#171=CARTESIAN_POINT('',(0.0250000000000,6.0,0.0500000000000));
#172=DIRECTION('',(-1.0,-0.0,-0.0));
#173=VECTOR('',#172,1.0);
#174=LINE('',#171,#173);
#175=EDGE_CURVE('',#137,#170,#174,.T.);
#176=ORIENTED_EDGE('',*,*,#175,.T.);
#177=CARTESIAN_POINT('',(0.0250000000000,0.0,0.0500000000000));
#178=VERTEX_POINT('',#177);
#179=CARTESIAN_POINT('',(0.0250000000000,0.0,0.0500000000000));
#180=DIRECTION('',(0.0,1.0,-0.0));
#181=VECTOR('',#180,1.0);
#182=LINE('',#179,#181);
#183=EDGE_CURVE('',#178,#170,#182,.T.);
#184=ORIENTED_EDGE('',*,*,#183,.F.);
#185=CARTESIAN_POINT('',(0.0250000000000,0.0,0.0500000000000));
#186=DIRECTION('',(1.0,0.0,0.0));
#187=VECTOR('',#186,1.0);
#188=LINE('',#185,#187);
#189=EDGE_CURVE('',#178,#146,#188,.T.);
#190=ORIENTED_EDGE('',*,*,#189,.T.);
#191=EDGE_LOOP('',(#168,#176,#184,#190));
#192=FACE_OUTER_BOUND('',#191,.T.);
#193=CARTESIAN_POINT('',(0.310000000000,0.0,0.0500000000000));
#194=DIRECTION('',(-0.0,0.0,1.0));
#195=DIRECTION('',(1.0,0.0,0.0));
#196=AXIS2_PLACEMENT_3D('',#193,#194,#195);
#197=PLANE('',#196);
#198=ADVANCED_FACE('',(#192),#197,.T.);
#199=ORIENTED_EDGE('',*,*,#183,.T.);
#200=CARTESIAN_POINT('',(0.0250000000000,6.0,0.189817409805));
#201=VERTEX_POINT('',#200);
#202=CARTESIAN_POINT('',(0.0250000000000,6.0,0.190000000000));
#203=DIRECTION('',(0.0,0.0,1.0));
#204=VECTOR('',#203,1.0);
#205=LINE('',#202,#204);
#206=EDGE_CURVE('',#170,#201,#205,.T.);
#207=ORIENTED_EDGE('',*,*,#206,.T.);
#208=CARTESIAN_POINT('',(0.0250000000000,0.0,0.189817409805));
#209=VERTEX_POINT('',#208);
#210=CARTESIAN_POINT('',(0.0250000000000,0.0,0.189817409805));
#211=DIRECTION('',(0.0,1.0,-0.0));
#212=VECTOR('',#211,1.0);
#213=LINE('',#210,#212);
#214=EDGE_CURVE('',#209,#201,#213,.T.);
#215=ORIENTED_EDGE('',*,*,#214,.F.);
#216=CARTESIAN_POINT('',(0.0250000000000,0.0,0.190000000000));
#217=DIRECTION('',(0.0,-0.0,-1.0));
#218=VECTOR('',#217,1.0);
#219=LINE('',#216,#218);
#220=EDGE_CURVE('',#209,#178,#219,.T.);
#221=ORIENTED_EDGE('',*,*,#220,.T.);
#222=EDGE_LOOP('',(#199,#207,#215,#221));
#223=FACE_OUTER_BOUND('',#222,.T.);
#224=CARTESIAN_POINT('',(0.0250000000000,0.0,0.119908704903));
#225=DIRECTION('',(1.0,0.0,0.0));
#226=DIRECTION('',(0.0,-0.0,-1.0));
#227=AXIS2_PLACEMENT_3D('',#224,#225,#226);
#228=PLANE('',#227);
#229=ADVANCED_FACE('',(#223),#228,.T.);
#230=ORIENTED_EDGE('',*,*,#214,.T.);
#231=CARTESIAN_POINT('',(0.369727221597,6.0,0.150562369020));
#232=VERTEX_POINT('',#231);
#233=CARTESIAN_POINT('',(0.0,6.0,-1.56300431530));
#234=DIRECTION('',(0.0,1.0,-0.0));
#235=DIRECTION('',(1.0,0.0,0.0));
#236=AXIS2_PLACEMENT_3D('',#233,#234,#235);
#237=CIRCLE('',#236,1.753);
#238=EDGE_CURVE('',#201,#232,#237,.T.);
#239=ORIENTED_EDGE('',*,*,#238,.T.);
#240=CARTESIAN_POINT('',(0.369727221597,0.0,0.150562369020));
#241=VERTEX_POINT('',#240);
#242=CARTESIAN_POINT('',(0.369727221597,0.0,0.150562369020));
#243=DIRECTION('',(0.0,1.0,-0.0));
#244=VECTOR('',#243,1.0);
#245=LINE('',#242,#244);
#246=EDGE_CURVE('',#241,#232,#245,.T.);
#247=ORIENTED_EDGE('',*,*,#246,.F.);
#248=CARTESIAN_POINT('',(0.0,0.0,-1.56300431530));
#249=DIRECTION('',(0.0,-1.0,0.0));
#250=DIRECTION('',(1.0,0.0,0.0));
#251=AXIS2_PLACEMENT_3D('',#248,#249,#250);
#252=CIRCLE('',#251,1.753);
#253=EDGE_CURVE('',#241,#209,#252,.T.);
#254=ORIENTED_EDGE('',*,*,#253,.T.);
#255=EDGE_LOOP('',(#230,#239,#247,#254));
#256=FACE_OUTER_BOUND('',#255,.T.);
#257=CARTESIAN_POINT('',(0.0,0.0,-1.56300431530));
#258=DIRECTION('',(0.0,1.0,-0.0));
#259=DIRECTION('',(1.0,0.0,0.0));
#260=AXIS2_PLACEMENT_3D('',#257,#258,#259);
#261=CYLINDRICAL_SURFACE('',#260,1.753);
#262=ADVANCED_FACE('',(#256),#261,.F.);
#263=ORIENTED_EDGE('',*,*,#246,.T.);
#264=CARTESIAN_POINT('',(0.380272778403,6.0,0.199437630980));
#265=VERTEX_POINT('',#264);
#266=CARTESIAN_POINT('',(0.375000000000,6.0,0.175000000000));
#267=DIRECTION('',(0.0,-1.0,0.0));
#268=DIRECTION('',(1.0,0.0,0.0));
#269=AXIS2_PLACEMENT_3D('',#266,#267,#268);
#270=CIRCLE('',#269,0.025);
#271=EDGE_CURVE('',#232,#265,#270,.T.);
#272=ORIENTED_EDGE('',*,*,#271,.T.);
#273=CARTESIAN_POINT('',(0.380272778403,0.0,0.199437630980));
#274=VERTEX_POINT('',#273);
#275=CARTESIAN_POINT('',(0.380272778403,0.0,0.199437630980));
#276=DIRECTION('',(0.0,1.0,-0.0));
#277=VECTOR('',#276,1.0);
#278=LINE('',#275,#277);
#279=EDGE_CURVE('',#274,#265,#278,.T.);
#280=ORIENTED_EDGE('',*,*,#279,.F.);
#281=CARTESIAN_POINT('',(0.375000000000,0.0,0.175000000000));
#282=DIRECTION('',(0.0,-1.0,0.0));
#283=DIRECTION('',(1.0,0.0,0.0));
#284=AXIS2_PLACEMENT_3D('',#281,#282,#283);
#285=CIRCLE('',#284,0.025);
#286=EDGE_CURVE('',#241,#274,#285,.T.);
#287=ORIENTED_EDGE('',*,*,#286,.F.);
#288=EDGE_LOOP('',(#263,#272,#280,#287));
#289=FACE_OUTER_BOUND('',#288,.T.);
#290=CARTESIAN_POINT('',(0.375000000000,0.0,0.175000000000));
#291=DIRECTION('',(0.0,1.0,-0.0));
#292=DIRECTION('',(-0.977505239201,0.0,0.210911136108));
#293=AXIS2_PLACEMENT_3D('',#290,#291,#292);
#294=CYLINDRICAL_SURFACE('',#293,0.025);
#295=ADVANCED_FACE('',(#289),#294,.T.);
#296=ORIENTED_EDGE('',*,*,#279,.T.);
#297=CARTESIAN_POINT('',(-0.380272778403,6.0,0.199437630980));
#298=VERTEX_POINT('',#297);
#299=CARTESIAN_POINT('',(0.0,6.0,-1.56300431530));
#300=DIRECTION('',(0.0,-1.0,0.0));
#301=DIRECTION('',(1.0,0.0,0.0));
#302=AXIS2_PLACEMENT_3D('',#299,#300,#301);
#303=CIRCLE('',#302,1.803);
#304=EDGE_CURVE('',#265,#298,#303,.T.);
#305=ORIENTED_EDGE('',*,*,#304,.T.);
#306=CARTESIAN_POINT('',(-0.380272778403,0.0,0.199437630980));
#307=VERTEX_POINT('',#306);
#308=CARTESIAN_POINT('',(-0.380272778403,0.0,0.199437630980));
#309=DIRECTION('',(0.0,1.0,-0.0));
#310=VECTOR('',#309,1.0);
#311=LINE('',#308,#310);
#312=EDGE_CURVE('',#307,#298,#311,.T.);
#313=ORIENTED_EDGE('',*,*,#312,.F.);
#314=CARTESIAN_POINT('',(0.0,0.0,-1.56300431530));
#315=DIRECTION('',(0.0,-1.0,0.0));
#316=DIRECTION('',(1.0,0.0,0.0));
#317=AXIS2_PLACEMENT_3D('',#314,#315,#316);
#318=CIRCLE('',#317,1.803);
#319=EDGE_CURVE('',#274,#307,#318,.T.);
#320=ORIENTED_EDGE('',*,*,#319,.F.);
#321=EDGE_LOOP('',(#296,#305,#313,#320));
#322=FACE_OUTER_BOUND('',#321,.T.);
#323=CARTESIAN_POINT('',(0.0,0.0,-1.56300431530));
#324=DIRECTION('',(0.0,1.0,-0.0));
#325=DIRECTION('',(1.0,0.0,0.0));
#326=AXIS2_PLACEMENT_3D('',#323,#324,#325);
#327=CYLINDRICAL_SURFACE('',#326,1.803);
#328=ADVANCED_FACE('',(#322),#327,.T.);
#329=ORIENTED_EDGE('',*,*,#312,.T.);
#330=CARTESIAN_POINT('',(-0.369727221597,6.0,0.150562369020));
#331=VERTEX_POINT('',#330);
#332=CARTESIAN_POINT('',(-0.375000000000,6.0,0.175000000000));
#333=DIRECTION('',(0.0,-1.0,0.0));
#334=DIRECTION('',(1.0,0.0,0.0));
#335=AXIS2_PLACEMENT_3D('',#332,#333,#334);
#336=CIRCLE('',#335,0.025);
#337=EDGE_CURVE('',#298,#331,#336,.T.);
#338=ORIENTED_EDGE('',*,*,#337,.T.);
#339=CARTESIAN_POINT('',(-0.369727221597,0.0,0.150562369020));
#340=VERTEX_POINT('',#339);
#341=CARTESIAN_POINT('',(-0.369727221597,0.0,0.150562369020));
#342=DIRECTION('',(0.0,1.0,-0.0));
#343=VECTOR('',#342,1.0);
#344=LINE('',#341,#343);
#345=EDGE_CURVE('',#340,#331,#344,.T.);
#346=ORIENTED_EDGE('',*,*,#345,.F.);
#347=CARTESIAN_POINT('',(-0.375000000000,0.0,0.175000000000));
#348=DIRECTION('',(0.0,-1.0,0.0));
#349=DIRECTION('',(1.0,0.0,0.0));
#350=AXIS2_PLACEMENT_3D('',#347,#348,#349);
#351=CIRCLE('',#350,0.025);
#352=EDGE_CURVE('',#307,#340,#351,.T.);
#353=ORIENTED_EDGE('',*,*,#352,.F.);
#354=EDGE_LOOP('',(#329,#338,#346,#353));
#355=FACE_OUTER_BOUND('',#354,.T.);
#356=CARTESIAN_POINT('',(-0.375000000000,0.0,0.175000000000));
#357=DIRECTION('',(0.0,1.0,-0.0));
#358=DIRECTION('',(1.0,0.0,0.0));
#359=AXIS2_PLACEMENT_3D('',#356,#357,#358);
#360=CYLINDRICAL_SURFACE('',#359,0.025);
#361=ADVANCED_FACE('',(#355),#360,.T.);
#362=ORIENTED_EDGE('',*,*,#345,.T.);
#363=CARTESIAN_POINT('',(-0.0250000000000,6.0,0.190000000000));
#364=VERTEX_POINT('',#363);
#365=CARTESIAN_POINT('',(0.0,6.0,-1.56300431530));
#366=DIRECTION('',(0.0,1.0,-0.0));
#367=DIRECTION('',(1.0,0.0,0.0));
#368=AXIS2_PLACEMENT_3D('',#365,#366,#367);
#369=CIRCLE('',#368,1.753);
#370=EDGE_CURVE('',#331,#364,#369,.T.);
#371=ORIENTED_EDGE('',*,*,#370,.T.);
#372=CARTESIAN_POINT('',(-0.0250000000000,0.0,0.190000000000));
#373=VERTEX_POINT('',#372);
#374=CARTESIAN_POINT('',(-0.0250000000000,0.0,0.190000000000));
#375=DIRECTION('',(0.0,1.0,-0.0));
#376=VECTOR('',#375,1.0);
#377=LINE('',#374,#376);
#378=EDGE_CURVE('',#373,#364,#377,.T.);
#379=ORIENTED_EDGE('',*,*,#378,.F.);
#380=CARTESIAN_POINT('',(0.0,0.0,-1.56300431530));
#381=DIRECTION('',(0.0,-1.0,0.0));
#382=DIRECTION('',(1.0,0.0,0.0));
#383=AXIS2_PLACEMENT_3D('',#380,#381,#382);
#384=CIRCLE('',#383,1.753);
#385=EDGE_CURVE('',#373,#340,#384,.T.);
#386=ORIENTED_EDGE('',*,*,#385,.T.);
#387=EDGE_LOOP('',(#362,#371,#379,#386));
#388=FACE_OUTER_BOUND('',#387,.T.);
#389=CARTESIAN_POINT('',(0.0,0.0,-1.56300431530));
#390=DIRECTION('',(0.0,1.0,-0.0));
#391=DIRECTION('',(1.0,0.0,0.0));
#392=AXIS2_PLACEMENT_3D('',#389,#390,#391);
#393=CYLINDRICAL_SURFACE('',#392,1.753);
#394=ADVANCED_FACE('',(#388),#393,.F.);
#395=ORIENTED_EDGE('',*,*,#378,.T.);
#396=CARTESIAN_POINT('',(-0.0250000000000,6.0,0.190000000000));
#397=DIRECTION('',(0.0,-0.0,-1.0));
#398=VECTOR('',#397,1.0);
#399=LINE('',#396,#398);
#400=EDGE_CURVE('',#364,#34,#399,.T.);
#401=ORIENTED_EDGE('',*,*,#400,.T.);
#402=ORIENTED_EDGE('',*,*,#39,.F.);
#403=CARTESIAN_POINT('',(-0.0250000000000,0.0,0.190000000000));
#404=DIRECTION('',(0.0,-0.0,-1.0));
#405=VECTOR('',#404,1.0);
#406=LINE('',#403,#405);
#407=EDGE_CURVE('',#373,#32,#406,.T.);
#408=ORIENTED_EDGE('',*,*,#407,.F.);
#409=EDGE_LOOP('',(#395,#401,#402,#408));
#410=FACE_OUTER_BOUND('',#409,.T.);
#411=CARTESIAN_POINT('',(-0.0250000000000,0.0,0.120000000000));
#412=DIRECTION('',(-1.0,0.0,-0.0));
#413=DIRECTION('',(-0.0,0.0,1.0));
#414=AXIS2_PLACEMENT_3D('',#411,#412,#413);
#415=PLANE('',#414);
#416=ADVANCED_FACE('',(#410),#415,.T.);
#417=ORIENTED_EDGE('',*,*,#79,.F.);
#418=ORIENTED_EDGE('',*,*,#47,.F.);
#419=ORIENTED_EDGE('',*,*,#400,.F.);
#420=ORIENTED_EDGE('',*,*,#370,.F.);
#421=ORIENTED_EDGE('',*,*,#337,.F.);
#422=ORIENTED_EDGE('',*,*,#304,.F.);
#423=ORIENTED_EDGE('',*,*,#271,.F.);
#424=ORIENTED_EDGE('',*,*,#238,.F.);
#425=ORIENTED_EDGE('',*,*,#206,.F.);
#426=ORIENTED_EDGE('',*,*,#175,.F.);
#427=ORIENTED_EDGE('',*,*,#143,.F.);
#428=ORIENTED_EDGE('',*,*,#111,.F.);
#429=EDGE_LOOP('',(#417,#418,#419,#420,#421,#422,#423,#424,#425,#426,#427,#428));
#430=FACE_OUTER_BOUND('',#429,.T.);
#431=CARTESIAN_POINT('',(-0.0250000000000,6.0,0.146274500000));
#432=DIRECTION('',(0.0,-1.0,0.0));
#433=DIRECTION('',(1.0,0.0,0.0));
#434=AXIS2_PLACEMENT_3D('',#431,#432,#433);
#435=PLANE('',#434);
#436=ADVANCED_FACE('',(#430),#435,.F.);
#437=ORIENTED_EDGE('',*,*,#385,.F.);
#438=ORIENTED_EDGE('',*,*,#407,.T.);
#439=ORIENTED_EDGE('',*,*,#61,.F.);
#440=ORIENTED_EDGE('',*,*,#94,.T.);
#441=ORIENTED_EDGE('',*,*,#125,.T.);
#442=ORIENTED_EDGE('',*,*,#158,.T.);
#443=ORIENTED_EDGE('',*,*,#189,.F.);
#444=ORIENTED_EDGE('',*,*,#220,.F.);
#445=ORIENTED_EDGE('',*,*,#253,.F.);
#446=ORIENTED_EDGE('',*,*,#286,.T.);
#447=ORIENTED_EDGE('',*,*,#319,.T.);
#448=ORIENTED_EDGE('',*,*,#352,.T.);
#449=EDGE_LOOP('',(#437,#438,#439,#440,#441,#442,#443,#444,#445,#446,#447,#448));
#450=FACE_OUTER_BOUND('',#449,.T.);
#451=CARTESIAN_POINT('',(-0.0250000000000,0.0,0.146274500000));
#452=DIRECTION('',(0.0,-1.0,0.0));
#453=DIRECTION('',(1.0,0.0,0.0));
#454=AXIS2_PLACEMENT_3D('',#451,#452,#453);
#455=PLANE('',#454);
#456=ADVANCED_FACE('',(#450),#455,.T.);
#457=CLOSED_SHELL('',(#70,#103,#134,#167,#198,#229,#262,#295,#328,#361,#394,#416,#436,#456));
#458=MANIFOLD_SOLID_BREP('',#457);
#459=COLOUR_RGB('',1.0,0.0,0.0);
#460=FILL_AREA_STYLE_COLOUR('',#459);
#461=FILL_AREA_STYLE('',(#460));
#462=SURFACE_STYLE_FILL_AREA(#461);
#463=SURFACE_SIDE_STYLE('',(#462));
#464=SURFACE_STYLE_USAGE(.BOTH.,#463);
#465=PRESENTATION_STYLE_ASSIGNMENT((#464));
#466=STYLED_ITEM('',(#465),#458);
#467=ADVANCED_BREP_SHAPE_REPRESENTATION('',(#458,#23),#18);
#468=SHAPE_DEFINITION_REPRESENTATION(#30,#467);
#469=DERIVED_UNIT_ELEMENT(#12,3.0);
#470=VOLUME_UNIT((#469));
#471=NAME_ATTRIBUTE('CUBIC MILLIMETRE',#470);
#472=DERIVED_UNIT_ELEMENT(#12,2.0);
#473=AREA_UNIT((#472));
#474=NAME_ATTRIBUTE('SQUARE MILLIMETRE',#473);
#475=SHAPE_ASPECT('#475','solid #458',#30,.F.);
#476=GEOMETRIC_ITEM_SPECIFIC_USAGE('Shape for Validation Properties','',#475,#467,#458);
#477=MEASURE_REPRESENTATION_ITEM('volume measure',VOLUME_MEASURE(0.641174446657627),#470);
#478=REPRESENTATION('volume',(#477),#18);
#479=PROPERTY_DEFINITION('volume of #458','geometric validation property',#475);
#480=PROPERTY_DEFINITION_REPRESENTATION(#479,#478);
#481=MEASURE_REPRESENTATION_ITEM('surface area measure',AREA_MEASURE(26.5180448962014),#473);
#482=REPRESENTATION('surface area',(#481),#18);
#483=PROPERTY_DEFINITION('area of #458','geometric validation property',#475);
#484=PROPERTY_DEFINITION_REPRESENTATION(#483,#482);
#485=CARTESIAN_POINT('centre point',(1.22584254841E-05,3.0,0.0934709774732));
#486=REPRESENTATION('centroid',(#485),#18);
#487=PROPERTY_DEFINITION('centroid of #458','geometric validation property',#475);
#488=PROPERTY_DEFINITION_REPRESENTATION(#487,#486);
#489=CARTESIAN_POINT('bounding box corner point',(-0.620000000000,0.0,0.0));
#490=CARTESIAN_POINT('bounding box corner point',(0.620000000000,6.0,0.239995684700));
#491=REPRESENTATION('bounding box',(#489,#490),#18);
#492=PROPERTY_DEFINITION('bounding box of #458','geometric validation property',#475);
#493=PROPERTY_DEFINITION_REPRESENTATION(#492,#491);
#494=PRESENTATION_LAYER_ASSIGNMENT('1','Unnamed [1]',(#458));
ENDSEC;
END-ISO-10303-21;
