ISO-10303-21;
HEADER;
FILE_DESCRIPTION(('', 'CAx-IF Rec.Pracs.---Representation and Presentation of Product Manufacturing Information (PMI)---4.0---2014-10-13'),'2;1');
FILE_NAME('SG2672.STP', '2024-11-05T12:58:32',(''), (''), 'Kubotek Kosmos 3D Framework Version 6.0.14858.14858', 'Kubotek Kosmos 3D Framework', '');
FILE_SCHEMA(('AP242_MANAGED_MODEL_BASED_3D_ENGINEERING_MIM_LF  { 1 0 10303 442 4 1 4 }'));
ENDSEC;
DATA;
#1=PRODUCT_DEFINITION_CONTEXT('',#4,'design');
#2=PRODUCT_CONTEXT('',#4,'mechanical');
#3=APPLICATION_PROTOCOL_DEFINITION('international standard','ap242_managed_model_based_3d_engineering',2011,#4);
#4=APPLICATION_CONTEXT('managed model based 3d engineering');
#10=DIMENSIONAL_EXPONENTS(1.0,0.0,0.0,0.0,0.0,0.0,0.0);
#11=DIMENSIONAL_EXPONENTS(0.0,0.0,0.0,0.0,0.0,0.0,0.0);
#12=(LENGTH_UNIT()NAMED_UNIT(*)SI_UNIT(.MILLI.,.METRE.));
#13=(NAMED_UNIT(*)PLANE_ANGLE_UNIT()SI_UNIT($,.RADIAN.));
#14=(NAMED_UNIT(*)SI_UNIT($,.STERADIAN.)SOLID_ANGLE_UNIT());
#15=LENGTH_MEASURE_WITH_UNIT(LENGTH_MEASURE(25.4),#12);
#16=(CONVERSION_BASED_UNIT('INCH',#15)LENGTH_UNIT()NAMED_UNIT(#10));
#17=UNCERTAINTY_MEASURE_WITH_UNIT(LENGTH_MEASURE(1.0E-006),#16,'','');
#18=(GEOMETRIC_REPRESENTATION_CONTEXT(3)GLOBAL_UNCERTAINTY_ASSIGNED_CONTEXT((#17))GLOBAL_UNIT_ASSIGNED_CONTEXT((#16,#13,#14))REPRESENTATION_CONTEXT('NONE','WORKSPACE'));
#20=CARTESIAN_POINT('',(0.0,0.0,0.0));
#21=DIRECTION('',(0.0,0.0,1.0));
#22=DIRECTION('',(1.0,0.0,0.0));
#23=AXIS2_PLACEMENT_3D('',#20,#21,#22);
#24=PRODUCT('','','',(#2));
#25=PRODUCT_DEFINITION_FORMATION_WITH_SPECIFIED_SOURCE('','',#24,.NOT_KNOWN.);
#26=PRODUCT_CATEGORY('Part','');
#27=PRODUCT_RELATED_PRODUCT_CATEGORY('detail','',(#24));
#28=PRODUCT_CATEGORY_RELATIONSHIP('','',#26,#27);
#29=PRODUCT_DEFINITION('','',#25,#1);
#30=PRODUCT_DEFINITION_SHAPE('NONE','NONE',#29);
#31=CARTESIAN_POINT('',(0.375000000000,6.02000000000,0.927000000000));
#32=VERTEX_POINT('',#31);
#33=CARTESIAN_POINT('',(0.335000000000,6.02000000000,0.927000000000));
#34=VERTEX_POINT('',#33);
#35=CARTESIAN_POINT('',(0.355000000000,6.02000000000,0.927000000000));
#36=DIRECTION('',(0.0,-1.0,0.0));
#37=DIRECTION('',(1.0,0.0,0.0));
#38=AXIS2_PLACEMENT_3D('',#35,#36,#37);
#39=CIRCLE('',#38,0.02);
#40=EDGE_CURVE('',#32,#34,#39,.T.);
#41=ORIENTED_EDGE('',*,*,#40,.T.);
#42=CARTESIAN_POINT('',(0.335000000000,0.0200000000000,0.927000000000));
#43=VERTEX_POINT('',#42);
#44=CARTESIAN_POINT('',(0.335000000000,0.0200000000000,0.927000000000));
#45=DIRECTION('',(-0.0,1.0,-0.0));
#46=VECTOR('',#45,1.0);
#47=LINE('',#44,#46);
#48=EDGE_CURVE('',#43,#34,#47,.T.);
#49=ORIENTED_EDGE('',*,*,#48,.F.);
#50=CARTESIAN_POINT('',(0.375000000000,0.0200000000000,0.927000000000));
#51=VERTEX_POINT('',#50);
#52=CARTESIAN_POINT('',(0.355000000000,0.0200000000000,0.927000000000));
#53=DIRECTION('',(0.0,-1.0,0.0));
#54=DIRECTION('',(1.0,0.0,0.0));
#55=AXIS2_PLACEMENT_3D('',#52,#53,#54);
#56=CIRCLE('',#55,0.02);
#57=EDGE_CURVE('',#51,#43,#56,.T.);
#58=ORIENTED_EDGE('',*,*,#57,.F.);
#59=CARTESIAN_POINT('',(0.375000000000,0.0200000000000,0.927000000000));
#60=DIRECTION('',(-0.0,1.0,-0.0));
#61=VECTOR('',#60,1.0);
#62=LINE('',#59,#61);
#63=EDGE_CURVE('',#51,#32,#62,.T.);
#64=ORIENTED_EDGE('',*,*,#63,.T.);
#65=EDGE_LOOP('',(#41,#49,#58,#64));
#66=FACE_OUTER_BOUND('',#65,.T.);
#67=CARTESIAN_POINT('',(0.355000000000,0.0200000000000,0.927000000000));
#68=DIRECTION('',(-0.0,1.0,-0.0));
#69=DIRECTION('',(0.0,0.0,-1.0));
#70=AXIS2_PLACEMENT_3D('',#67,#68,#69);
#71=CYLINDRICAL_SURFACE('',#70,0.02);
#72=ADVANCED_FACE('',(#66),#71,.T.);
#73=CARTESIAN_POINT('',(0.335000000000,6.02000000000,0.0200000000000));
#74=VERTEX_POINT('',#73);
#75=CARTESIAN_POINT('',(0.335000000000,6.02000000000,0.0200000000000));
#76=DIRECTION('',(-0.0,-0.0,-1.0));
#77=VECTOR('',#76,1.0);
#78=LINE('',#75,#77);
#79=EDGE_CURVE('',#34,#74,#78,.T.);
#80=ORIENTED_EDGE('',*,*,#79,.T.);
#81=CARTESIAN_POINT('',(0.335000000000,0.0200000000000,0.0200000000000));
#82=VERTEX_POINT('',#81);
#83=CARTESIAN_POINT('',(0.335000000000,0.0200000000000,0.0200000000000));
#84=DIRECTION('',(-0.0,1.0,-0.0));
#85=VECTOR('',#84,1.0);
#86=LINE('',#83,#85);
#87=EDGE_CURVE('',#82,#74,#86,.T.);
#88=ORIENTED_EDGE('',*,*,#87,.F.);
#89=CARTESIAN_POINT('',(0.335000000000,0.0200000000000,0.0200000000000));
#90=DIRECTION('',(0.0,0.0,1.0));
#91=VECTOR('',#90,1.0);
#92=LINE('',#89,#91);
#93=EDGE_CURVE('',#82,#43,#92,.T.);
#94=ORIENTED_EDGE('',*,*,#93,.T.);
#95=ORIENTED_EDGE('',*,*,#48,.T.);
#96=EDGE_LOOP('',(#80,#88,#94,#95));
#97=FACE_OUTER_BOUND('',#96,.T.);
#98=CARTESIAN_POINT('',(0.335000000000,0.0200000000000,0.473500000000));
#99=DIRECTION('',(-1.0,-0.0,0.0));
#100=DIRECTION('',(0.0,0.0,1.0));
#101=AXIS2_PLACEMENT_3D('',#98,#99,#100);
#102=PLANE('',#101);
#103=ADVANCED_FACE('',(#97),#102,.T.);
#104=CARTESIAN_POINT('',(0.0,6.02000000000,0.0200000000000));
#105=VERTEX_POINT('',#104);
#106=CARTESIAN_POINT('',(0.0,6.02000000000,0.0200000000000));
#107=DIRECTION('',(-1.0,0.0,0.0));
#108=VECTOR('',#107,1.0);
#109=LINE('',#106,#108);
#110=EDGE_CURVE('',#74,#105,#109,.T.);
#111=ORIENTED_EDGE('',*,*,#110,.T.);
#112=CARTESIAN_POINT('',(0.0,0.0200000000000,0.0200000000000));
#113=VERTEX_POINT('',#112);
#114=CARTESIAN_POINT('',(0.0,0.0200000000000,0.0200000000000));
#115=DIRECTION('',(-0.0,1.0,-0.0));
#116=VECTOR('',#115,1.0);
#117=LINE('',#114,#116);
#118=EDGE_CURVE('',#113,#105,#117,.T.);
#119=ORIENTED_EDGE('',*,*,#118,.F.);
#120=CARTESIAN_POINT('',(0.0,0.0200000000000,0.0200000000000));
#121=DIRECTION('',(1.0,0.0,0.0));
#122=VECTOR('',#121,1.0);
#123=LINE('',#120,#122);
#124=EDGE_CURVE('',#113,#82,#123,.T.);
#125=ORIENTED_EDGE('',*,*,#124,.T.);
#126=ORIENTED_EDGE('',*,*,#87,.T.);
#127=EDGE_LOOP('',(#111,#119,#125,#126));
#128=FACE_OUTER_BOUND('',#127,.T.);
#129=CARTESIAN_POINT('',(0.167500000000,0.0200000000000,0.0200000000000));
#130=DIRECTION('',(-0.0,0.0,1.0));
#131=DIRECTION('',(1.0,0.0,0.0));
#132=AXIS2_PLACEMENT_3D('',#129,#130,#131);
#133=PLANE('',#132);
#134=ADVANCED_FACE('',(#128),#133,.T.);
#135=CARTESIAN_POINT('',(0.0,6.02000000000,-0.0200000000000));
#136=VERTEX_POINT('',#135);
#137=CARTESIAN_POINT('',(-0.0,6.02000000000,-0.0));
#138=DIRECTION('',(0.0,-1.0,0.0));
#139=DIRECTION('',(1.0,0.0,0.0));
#140=AXIS2_PLACEMENT_3D('',#137,#138,#139);
#141=CIRCLE('',#140,0.02);
#142=EDGE_CURVE('',#105,#136,#141,.T.);
#143=ORIENTED_EDGE('',*,*,#142,.T.);
#144=CARTESIAN_POINT('',(0.0,0.0200000000000,-0.0200000000000));
#145=VERTEX_POINT('',#144);
#146=CARTESIAN_POINT('',(0.0,0.0200000000000,-0.0200000000000));
#147=DIRECTION('',(-0.0,1.0,-0.0));
#148=VECTOR('',#147,1.0);
#149=LINE('',#146,#148);
#150=EDGE_CURVE('',#145,#136,#149,.T.);
#151=ORIENTED_EDGE('',*,*,#150,.F.);
#152=CARTESIAN_POINT('',(0.0,0.0200000000000,-0.0));
#153=DIRECTION('',(0.0,-1.0,0.0));
#154=DIRECTION('',(1.0,0.0,0.0));
#155=AXIS2_PLACEMENT_3D('',#152,#153,#154);
#156=CIRCLE('',#155,0.02);
#157=EDGE_CURVE('',#113,#145,#156,.T.);
#158=ORIENTED_EDGE('',*,*,#157,.F.);
#159=ORIENTED_EDGE('',*,*,#118,.T.);
#160=EDGE_LOOP('',(#143,#151,#158,#159));
#161=FACE_OUTER_BOUND('',#160,.T.);
#162=CARTESIAN_POINT('',(0.0,0.0200000000000,-0.0));
#163=DIRECTION('',(-0.0,1.0,-0.0));
#164=DIRECTION('',(1.0,0.0,-0.0));
#165=AXIS2_PLACEMENT_3D('',#162,#163,#164);
#166=CYLINDRICAL_SURFACE('',#165,0.02);
#167=ADVANCED_FACE('',(#161),#166,.T.);
#168=CARTESIAN_POINT('',(0.529773958644,6.02000000000,-0.0200000000000));
#169=VERTEX_POINT('',#168);
#170=CARTESIAN_POINT('',(0.0,6.02000000000,-0.0200000000000));
#171=DIRECTION('',(1.0,0.0,0.0));
#172=VECTOR('',#171,1.0);
#173=LINE('',#170,#172);
#174=EDGE_CURVE('',#136,#169,#173,.T.);
#175=ORIENTED_EDGE('',*,*,#174,.T.);
#176=CARTESIAN_POINT('',(0.529773958644,0.0200000000000,-0.0200000000000));
#177=VERTEX_POINT('',#176);
#178=CARTESIAN_POINT('',(0.529773958644,0.0200000000000,-0.0200000000000));
#179=DIRECTION('',(-0.0,1.0,-0.0));
#180=VECTOR('',#179,1.0);
#181=LINE('',#178,#180);
#182=EDGE_CURVE('',#177,#169,#181,.T.);
#183=ORIENTED_EDGE('',*,*,#182,.F.);
#184=CARTESIAN_POINT('',(0.0,0.0200000000000,-0.0200000000000));
#185=DIRECTION('',(1.0,0.0,0.0));
#186=VECTOR('',#185,1.0);
#187=LINE('',#184,#186);
#188=EDGE_CURVE('',#145,#177,#187,.T.);
#189=ORIENTED_EDGE('',*,*,#188,.F.);
#190=ORIENTED_EDGE('',*,*,#150,.T.);
#191=EDGE_LOOP('',(#175,#183,#189,#190));
#192=FACE_OUTER_BOUND('',#191,.T.);
#193=CARTESIAN_POINT('',(0.264886979322,0.0200000000000,-0.0200000000000));
#194=DIRECTION('',(0.0,-0.0,-1.0));
#195=DIRECTION('',(-1.0,-0.0,-0.0));
#196=AXIS2_PLACEMENT_3D('',#193,#194,#195);
#197=PLANE('',#196);
#198=ADVANCED_FACE('',(#192),#197,.T.);
#199=CARTESIAN_POINT('',(0.569771137535,6.02000000000,0.0204750586893));
#200=VERTEX_POINT('',#199);
#201=CARTESIAN_POINT('',(0.529773958644,6.02000000000,0.0200000000000));
#202=DIRECTION('',(0.0,-1.0,0.0));
#203=DIRECTION('',(1.0,0.0,0.0));
#204=AXIS2_PLACEMENT_3D('',#201,#202,#203);
#205=CIRCLE('',#204,0.04);
#206=EDGE_CURVE('',#169,#200,#205,.T.);
#207=ORIENTED_EDGE('',*,*,#206,.T.);
#208=CARTESIAN_POINT('',(0.569771137535,0.0200000000000,0.0204750586893));
#209=VERTEX_POINT('',#208);
#210=CARTESIAN_POINT('',(0.569771137535,0.0200000000000,0.0204750586893));
#211=DIRECTION('',(-0.0,1.0,-0.0));
#212=VECTOR('',#211,1.0);
#213=LINE('',#210,#212);
#214=EDGE_CURVE('',#209,#200,#213,.T.);
#215=ORIENTED_EDGE('',*,*,#214,.F.);
#216=CARTESIAN_POINT('',(0.529773958644,0.0200000000000,0.0200000000000));
#217=DIRECTION('',(0.0,-1.0,0.0));
#218=DIRECTION('',(1.0,0.0,0.0));
#219=AXIS2_PLACEMENT_3D('',#216,#217,#218);
#220=CIRCLE('',#219,0.04);
#221=EDGE_CURVE('',#177,#209,#220,.T.);
#222=ORIENTED_EDGE('',*,*,#221,.F.);
#223=ORIENTED_EDGE('',*,*,#182,.T.);
#224=EDGE_LOOP('',(#207,#215,#222,#223));
#225=FACE_OUTER_BOUND('',#224,.T.);
#226=CARTESIAN_POINT('',(0.529773958644,0.0200000000000,0.0200000000000));
#227=DIRECTION('',(-0.0,1.0,-0.0));
#228=DIRECTION('',(-0.711293352715,0.0,0.702895274122));
#229=AXIS2_PLACEMENT_3D('',#226,#227,#228);
#230=CYLINDRICAL_SURFACE('',#229,0.04);
#231=ADVANCED_FACE('',(#225),#230,.T.);
#232=CARTESIAN_POINT('',(0.514658914729,6.02000000000,0.578677916760));
#233=VERTEX_POINT('',#232);
#234=CARTESIAN_POINT('',(-2.67500000000,6.02000000000,-0.0180640774824));
#235=DIRECTION('',(0.0,-1.0,0.0));
#236=DIRECTION('',(1.0,0.0,0.0));
#237=AXIS2_PLACEMENT_3D('',#234,#235,#236);
#238=CIRCLE('',#237,3.245);
#239=EDGE_CURVE('',#200,#233,#238,.T.);
#240=ORIENTED_EDGE('',*,*,#239,.T.);
#241=CARTESIAN_POINT('',(0.514658914729,0.0200000000000,0.578677916760));
#242=VERTEX_POINT('',#241);
#243=CARTESIAN_POINT('',(0.514658914729,0.0200000000000,0.578677916760));
#244=DIRECTION('',(-0.0,1.0,-0.0));
#245=VECTOR('',#244,1.0);
#246=LINE('',#243,#245);
#247=EDGE_CURVE('',#242,#233,#246,.T.);
#248=ORIENTED_EDGE('',*,*,#247,.F.);
#249=CARTESIAN_POINT('',(-2.67500000000,0.0200000000000,-0.0180640774824));
#250=DIRECTION('',(0.0,-1.0,0.0));
#251=DIRECTION('',(1.0,0.0,0.0));
#252=AXIS2_PLACEMENT_3D('',#249,#250,#251);
#253=CIRCLE('',#252,3.245);
#254=EDGE_CURVE('',#209,#242,#253,.T.);
#255=ORIENTED_EDGE('',*,*,#254,.F.);
#256=ORIENTED_EDGE('',*,*,#214,.T.);
#257=EDGE_LOOP('',(#240,#248,#255,#256));
#258=FACE_OUTER_BOUND('',#257,.T.);
#259=CARTESIAN_POINT('',(-2.67500000000,0.0200000000000,-0.0180640774824));
#260=DIRECTION('',(-0.0,1.0,-0.0));
#261=DIRECTION('',(1.0,0.0,-0.0));
#262=AXIS2_PLACEMENT_3D('',#259,#260,#261);
#263=CYLINDRICAL_SURFACE('',#262,3.245);
#264=ADVANCED_FACE('',(#258),#263,.T.);
#265=CARTESIAN_POINT('',(0.475341085271,6.02000000000,0.571322083240));
#266=VERTEX_POINT('',#265);
#267=CARTESIAN_POINT('',(0.495000000000,6.02000000000,0.575000000000));
#268=DIRECTION('',(0.0,-1.0,0.0));
#269=DIRECTION('',(1.0,0.0,0.0));
#270=AXIS2_PLACEMENT_3D('',#267,#268,#269);
#271=CIRCLE('',#270,0.02);
#272=EDGE_CURVE('',#233,#266,#271,.T.);
#273=ORIENTED_EDGE('',*,*,#272,.T.);
#274=CARTESIAN_POINT('',(0.475341085271,0.0200000000000,0.571322083240));
#275=VERTEX_POINT('',#274);
#276=CARTESIAN_POINT('',(0.475341085271,0.0200000000000,0.571322083240));
#277=DIRECTION('',(-0.0,1.0,-0.0));
#278=VECTOR('',#277,1.0);
#279=LINE('',#276,#278);
#280=EDGE_CURVE('',#275,#266,#279,.T.);
#281=ORIENTED_EDGE('',*,*,#280,.F.);
#282=CARTESIAN_POINT('',(0.495000000000,0.0200000000000,0.575000000000));
#283=DIRECTION('',(0.0,-1.0,0.0));
#284=DIRECTION('',(1.0,0.0,0.0));
#285=AXIS2_PLACEMENT_3D('',#282,#283,#284);
#286=CIRCLE('',#285,0.02);
#287=EDGE_CURVE('',#242,#275,#286,.T.);
#288=ORIENTED_EDGE('',*,*,#287,.F.);
#289=ORIENTED_EDGE('',*,*,#247,.T.);
#290=EDGE_LOOP('',(#273,#281,#288,#289));
#291=FACE_OUTER_BOUND('',#290,.T.);
#292=CARTESIAN_POINT('',(0.495000000000,0.0200000000000,0.575000000000));
#293=DIRECTION('',(-0.0,1.0,-0.0));
#294=DIRECTION('',(1.0,0.0,-0.0));
#295=AXIS2_PLACEMENT_3D('',#292,#293,#294);
#296=CYLINDRICAL_SURFACE('',#295,0.02);
#297=ADVANCED_FACE('',(#291),#296,.T.);
#298=CARTESIAN_POINT('',(0.529773958644,6.02000000000,0.0200000000000));
#299=VERTEX_POINT('',#298);
#300=CARTESIAN_POINT('',(-2.67500000000,6.02000000000,-0.0180640774824));
#301=DIRECTION('',(0.0,1.0,-0.0));
#302=DIRECTION('',(1.0,0.0,0.0));
#303=AXIS2_PLACEMENT_3D('',#300,#301,#302);
#304=CIRCLE('',#303,3.205);
#305=EDGE_CURVE('',#266,#299,#304,.T.);
#306=ORIENTED_EDGE('',*,*,#305,.T.);
#307=CARTESIAN_POINT('',(0.529773958644,0.0200000000000,0.0200000000000));
#308=VERTEX_POINT('',#307);
#309=CARTESIAN_POINT('',(0.529773958644,0.0200000000000,0.0200000000000));
#310=DIRECTION('',(-0.0,1.0,-0.0));
#311=VECTOR('',#310,1.0);
#312=LINE('',#309,#311);
#313=EDGE_CURVE('',#308,#299,#312,.T.);
#314=ORIENTED_EDGE('',*,*,#313,.F.);
#315=CARTESIAN_POINT('',(-2.67500000000,0.0200000000000,-0.0180640774824));
#316=DIRECTION('',(0.0,-1.0,0.0));
#317=DIRECTION('',(1.0,0.0,0.0));
#318=AXIS2_PLACEMENT_3D('',#315,#316,#317);
#319=CIRCLE('',#318,3.205);
#320=EDGE_CURVE('',#308,#275,#319,.T.);
#321=ORIENTED_EDGE('',*,*,#320,.T.);
#322=ORIENTED_EDGE('',*,*,#280,.T.);
#323=EDGE_LOOP('',(#306,#314,#321,#322));
#324=FACE_OUTER_BOUND('',#323,.T.);
#325=CARTESIAN_POINT('',(-2.67500000000,0.0200000000000,-0.0180640774824));
#326=DIRECTION('',(-0.0,1.0,-0.0));
#327=DIRECTION('',(1.0,0.0,-0.0));
#328=AXIS2_PLACEMENT_3D('',#325,#326,#327);
#329=CYLINDRICAL_SURFACE('',#328,3.205);
#330=ADVANCED_FACE('',(#324),#329,.F.);
#331=CARTESIAN_POINT('',(0.375000000000,6.02000000000,0.0200000000000));
#332=VERTEX_POINT('',#331);
#333=CARTESIAN_POINT('',(0.375000000000,6.02000000000,0.0200000000000));
#334=DIRECTION('',(-1.0,0.0,0.0));
#335=VECTOR('',#334,1.0);
#336=LINE('',#333,#335);
#337=EDGE_CURVE('',#299,#332,#336,.T.);
#338=ORIENTED_EDGE('',*,*,#337,.T.);
#339=CARTESIAN_POINT('',(0.375000000000,0.0200000000000,0.0200000000000));
#340=VERTEX_POINT('',#339);
#341=CARTESIAN_POINT('',(0.375000000000,0.0200000000000,0.0200000000000));
#342=DIRECTION('',(-0.0,1.0,-0.0));
#343=VECTOR('',#342,1.0);
#344=LINE('',#341,#343);
#345=EDGE_CURVE('',#340,#332,#344,.T.);
#346=ORIENTED_EDGE('',*,*,#345,.F.);
#347=CARTESIAN_POINT('',(0.375000000000,0.0200000000000,0.0200000000000));
#348=DIRECTION('',(1.0,0.0,0.0));
#349=VECTOR('',#348,1.0);
#350=LINE('',#347,#349);
#351=EDGE_CURVE('',#340,#308,#350,.T.);
#352=ORIENTED_EDGE('',*,*,#351,.T.);
#353=ORIENTED_EDGE('',*,*,#313,.T.);
#354=EDGE_LOOP('',(#338,#346,#352,#353));
#355=FACE_OUTER_BOUND('',#354,.T.);
#356=CARTESIAN_POINT('',(0.452386979322,0.0200000000000,0.0200000000000));
#357=DIRECTION('',(-0.0,0.0,1.0));
#358=DIRECTION('',(1.0,0.0,0.0));
#359=AXIS2_PLACEMENT_3D('',#356,#357,#358);
#360=PLANE('',#359);
#361=ADVANCED_FACE('',(#355),#360,.T.);
#362=CARTESIAN_POINT('',(0.375000000000,6.02000000000,0.0200000000000));
#363=DIRECTION('',(0.0,0.0,1.0));
#364=VECTOR('',#363,1.0);
#365=LINE('',#362,#364);
#366=EDGE_CURVE('',#332,#32,#365,.T.);
#367=ORIENTED_EDGE('',*,*,#366,.T.);
#368=ORIENTED_EDGE('',*,*,#63,.F.);
#369=CARTESIAN_POINT('',(0.375000000000,0.0200000000000,0.0200000000000));
#370=DIRECTION('',(0.0,0.0,1.0));
#371=VECTOR('',#370,1.0);
#372=LINE('',#369,#371);
#373=EDGE_CURVE('',#340,#51,#372,.T.);
#374=ORIENTED_EDGE('',*,*,#373,.F.);
#375=ORIENTED_EDGE('',*,*,#345,.T.);
#376=EDGE_LOOP('',(#367,#368,#374,#375));
#377=FACE_OUTER_BOUND('',#376,.T.);
#378=CARTESIAN_POINT('',(0.375000000000,0.0200000000000,0.473500000000));
#379=DIRECTION('',(1.0,0.0,-0.0));
#380=DIRECTION('',(-0.0,-0.0,-1.0));
#381=AXIS2_PLACEMENT_3D('',#378,#379,#380);
#382=PLANE('',#381);
#383=ADVANCED_FACE('',(#377),#382,.T.);
#384=ORIENTED_EDGE('',*,*,#40,.F.);
#385=ORIENTED_EDGE('',*,*,#366,.F.);
#386=ORIENTED_EDGE('',*,*,#337,.F.);
#387=ORIENTED_EDGE('',*,*,#305,.F.);
#388=ORIENTED_EDGE('',*,*,#272,.F.);
#389=ORIENTED_EDGE('',*,*,#239,.F.);
#390=ORIENTED_EDGE('',*,*,#206,.F.);
#391=ORIENTED_EDGE('',*,*,#174,.F.);
#392=ORIENTED_EDGE('',*,*,#142,.F.);
#393=ORIENTED_EDGE('',*,*,#110,.F.);
#394=ORIENTED_EDGE('',*,*,#79,.F.);
#395=EDGE_LOOP('',(#384,#385,#386,#387,#388,#389,#390,#391,#392,#393,#394));
#396=FACE_OUTER_BOUND('',#395,.T.);
#397=CARTESIAN_POINT('',(0.375000000000,6.02000000000,0.303278775000));
#398=DIRECTION('',(0.0,-1.0,0.0));
#399=DIRECTION('',(1.0,0.0,-0.0));
#400=AXIS2_PLACEMENT_3D('',#397,#398,#399);
#401=PLANE('',#400);
#402=ADVANCED_FACE('',(#396),#401,.F.);
#403=ORIENTED_EDGE('',*,*,#373,.T.);
#404=ORIENTED_EDGE('',*,*,#57,.T.);
#405=ORIENTED_EDGE('',*,*,#93,.F.);
#406=ORIENTED_EDGE('',*,*,#124,.F.);
#407=ORIENTED_EDGE('',*,*,#157,.T.);
#408=ORIENTED_EDGE('',*,*,#188,.T.);
#409=ORIENTED_EDGE('',*,*,#221,.T.);
#410=ORIENTED_EDGE('',*,*,#254,.T.);
#411=ORIENTED_EDGE('',*,*,#287,.T.);
#412=ORIENTED_EDGE('',*,*,#320,.F.);
#413=ORIENTED_EDGE('',*,*,#351,.F.);
#414=EDGE_LOOP('',(#403,#404,#405,#406,#407,#408,#409,#410,#411,#412,#413));
#415=FACE_OUTER_BOUND('',#414,.T.);
#416=CARTESIAN_POINT('',(0.375000000000,0.0200000000000,0.303278775000));
#417=DIRECTION('',(0.0,-1.0,0.0));
#418=DIRECTION('',(1.0,0.0,0.0));
#419=AXIS2_PLACEMENT_3D('',#416,#417,#418);
#420=PLANE('',#419);
#421=ADVANCED_FACE('',(#415),#420,.T.);
#422=CLOSED_SHELL('',(#72,#103,#134,#167,#198,#231,#264,#297,#330,#361,#383,#402,#421));
#423=MANIFOLD_SOLID_BREP('',#422);
#424=COLOUR_RGB('',1.0,0.0,0.0);
#425=FILL_AREA_STYLE_COLOUR('',#424);
#426=FILL_AREA_STYLE('',(#425));
#427=SURFACE_STYLE_FILL_AREA(#426);
#428=SURFACE_SIDE_STYLE('',(#427));
#429=SURFACE_STYLE_USAGE(.BOTH.,#428);
#430=PRESENTATION_STYLE_ASSIGNMENT((#429));
#431=STYLED_ITEM('',(#430),#423);
#432=ADVANCED_BREP_SHAPE_REPRESENTATION('',(#423,#23),#18);
#433=SHAPE_DEFINITION_REPRESENTATION(#30,#432);
#434=DERIVED_UNIT_ELEMENT(#12,3.0);
#435=VOLUME_UNIT((#434));
#436=NAME_ATTRIBUTE('CUBIC MILLIMETRE',#435);
#437=DERIVED_UNIT_ELEMENT(#12,2.0);
#438=AREA_UNIT((#437));
#439=NAME_ATTRIBUTE('SQUARE MILLIMETRE',#438);
#440=SHAPE_ASPECT('#440','solid #423',#30,.F.);
#441=GEOMETRIC_ITEM_SPECIFIC_USAGE('Shape for Validation Properties','',#440,#432,#423);
#442=MEASURE_REPRESENTATION_ITEM('volume measure',VOLUME_MEASURE(0.497439528063423),#435);
#443=REPRESENTATION('volume',(#442),#18);
#444=PROPERTY_DEFINITION('volume of #423','geometric validation property',#440);
#445=PROPERTY_DEFINITION_REPRESENTATION(#444,#443);
#446=MEASURE_REPRESENTATION_ITEM('surface area measure',AREA_MEASURE(25.3720156294604),#438);
#447=REPRESENTATION('surface area',(#446),#18);
#448=PROPERTY_DEFINITION('area of #423','geometric validation property',#440);
#449=PROPERTY_DEFINITION_REPRESENTATION(#448,#447);
#450=CARTESIAN_POINT('centre point',(0.379832098045,3.02000000000,0.298918007647));
#451=REPRESENTATION('centroid',(#450),#18);
#452=PROPERTY_DEFINITION('centroid of #423','geometric validation property',#440);
#453=PROPERTY_DEFINITION_REPRESENTATION(#452,#451);
#454=CARTESIAN_POINT('bounding box corner point',(-0.0200000000000,0.0200000000000,-0.0200000000000));
#455=CARTESIAN_POINT('bounding box corner point',(0.569773958644,6.02000000000,0.947000000000));
#456=REPRESENTATION('bounding box',(#454,#455),#18);
#457=PROPERTY_DEFINITION('bounding box of #423','geometric validation property',#440);
#458=PROPERTY_DEFINITION_REPRESENTATION(#457,#456);
#459=PRESENTATION_LAYER_ASSIGNMENT('1','Unnamed [1]',(#423));
ENDSEC;
END-ISO-10303-21;
