ISO-10303-21;
HEADER;
FILE_DESCRIPTION(('', 'CAx-IF Rec.Pracs.---Representation and Presentation of Product Manufacturing Information (PMI)---4.0---2014-10-13'),'2;1');
FILE_NAME('SG2670.STP', '2024-11-05T12:49:45',(''), (''), 'Kubotek Kosmos 3D Framework Version 6.0.14858.14858', 'Kubotek Kosmos 3D Framework', '');
FILE_SCHEMA(('AP242_MANAGED_MODEL_BASED_3D_ENGINEERING_MIM_LF  { 1 0 10303 442 4 1 4 }'));
ENDSEC;
DATA;
#1=PRODUCT_DEFINITION_CONTEXT('',#4,'design');
#2=PRODUCT_CONTEXT('',#4,'mechanical');
#3=APPLICATION_PROTOCOL_DEFINITION('international standard','ap242_managed_model_based_3d_engineering',2011,#4);
#4=APPLICATION_CONTEXT('managed model based 3d engineering');
#10=DIMENSIONAL_EXPONENTS(1.0,0.0,0.0,0.0,0.0,0.0,0.0);
#11=DIMENSIONAL_EXPONENTS(0.0,0.0,0.0,0.0,0.0,0.0,0.0);
#12=(LENGTH_UNIT()NAMED_UNIT(*)SI_UNIT(.MILLI.,.METRE.));
#13=(NAMED_UNIT(*)PLANE_ANGLE_UNIT()SI_UNIT($,.RADIAN.));
#14=(NAMED_UNIT(*)SI_UNIT($,.STERADIAN.)SOLID_ANGLE_UNIT());
#15=LENGTH_MEASURE_WITH_UNIT(LENGTH_MEASURE(25.4),#12);
#16=(CONVERSION_BASED_UNIT('INCH',#15)LENGTH_UNIT()NAMED_UNIT(#10));
#17=UNCERTAINTY_MEASURE_WITH_UNIT(LENGTH_MEASURE(1.0E-006),#16,'','');
#18=(GEOMETRIC_REPRESENTATION_CONTEXT(3)GLOBAL_UNCERTAINTY_ASSIGNED_CONTEXT((#17))GLOBAL_UNIT_ASSIGNED_CONTEXT((#16,#13,#14))REPRESENTATION_CONTEXT('NONE','WORKSPACE'));
#20=CARTESIAN_POINT('',(0.0,0.0,0.0));
#21=DIRECTION('',(0.0,0.0,1.0));
#22=DIRECTION('',(1.0,0.0,0.0));
#23=AXIS2_PLACEMENT_3D('',#20,#21,#22);
#24=PRODUCT('','','',(#2));
#25=PRODUCT_DEFINITION_FORMATION_WITH_SPECIFIED_SOURCE('','',#24,.NOT_KNOWN.);
#26=PRODUCT_CATEGORY('Part','');
#27=PRODUCT_RELATED_PRODUCT_CATEGORY('detail','',(#24));
#28=PRODUCT_CATEGORY_RELATIONSHIP('','',#26,#27);
#29=PRODUCT_DEFINITION('','',#25,#1);
#30=PRODUCT_DEFINITION_SHAPE('NONE','NONE',#29);
#31=CARTESIAN_POINT('',(0.0745000000000,6.0,-0.0));
#32=VERTEX_POINT('',#31);
#33=CARTESIAN_POINT('',(0.112499991278,6.0,0.0380257461881));
#34=VERTEX_POINT('',#33);
#35=CARTESIAN_POINT('',(0.0745000000000,6.0,0.0380000000000));
#36=DIRECTION('',(0.0,-1.0,0.0));
#37=DIRECTION('',(1.0,0.0,0.0));
#38=AXIS2_PLACEMENT_3D('',#35,#36,#37);
#39=CIRCLE('',#38,0.038);
#40=EDGE_CURVE('',#32,#34,#39,.T.);
#41=ORIENTED_EDGE('',*,*,#40,.T.);
#42=CARTESIAN_POINT('',(0.112499991278,-0.0,0.0380257461881));
#43=VERTEX_POINT('',#42);
#44=CARTESIAN_POINT('',(0.112499991278,-0.0,0.0380257461881));
#45=DIRECTION('',(0.0,1.0,-0.0));
#46=VECTOR('',#45,1.0);
#47=LINE('',#44,#46);
#48=EDGE_CURVE('',#43,#34,#47,.T.);
#49=ORIENTED_EDGE('',*,*,#48,.F.);
#50=CARTESIAN_POINT('',(0.0745000000000,-0.0,0.0));
#51=VERTEX_POINT('',#50);
#52=CARTESIAN_POINT('',(0.0745000000000,-0.0,0.0380000000000));
#53=DIRECTION('',(0.0,1.0,-0.0));
#54=DIRECTION('',(1.0,0.0,0.0));
#55=AXIS2_PLACEMENT_3D('',#52,#53,#54);
#56=CIRCLE('',#55,0.038);
#57=EDGE_CURVE('',#43,#51,#56,.T.);
#58=ORIENTED_EDGE('',*,*,#57,.T.);
#59=CARTESIAN_POINT('',(0.0745000000000,-0.0,0.0));
#60=DIRECTION('',(0.0,1.0,-0.0));
#61=VECTOR('',#60,1.0);
#62=LINE('',#59,#61);
#63=EDGE_CURVE('',#51,#32,#62,.T.);
#64=ORIENTED_EDGE('',*,*,#63,.T.);
#65=EDGE_LOOP('',(#41,#49,#58,#64));
#66=FACE_OUTER_BOUND('',#65,.T.);
#67=CARTESIAN_POINT('',(0.0745000000000,-0.0,0.0380000000000));
#68=DIRECTION('',(0.0,1.0,-0.0));
#69=DIRECTION('',(-0.707346284102,0.0,0.706867197122));
#70=AXIS2_PLACEMENT_3D('',#67,#68,#69);
#71=CYLINDRICAL_SURFACE('',#70,0.038);
#72=ADVANCED_FACE('',(#66),#71,.T.);
#73=CARTESIAN_POINT('',(0.0631561995101,6.0,0.554598085580));
#74=VERTEX_POINT('',#73);
#75=CARTESIAN_POINT('',(-2.61446566903,6.0,0.0381846205574));
#76=DIRECTION('',(-0.0,-1.0,0.0));
#77=DIRECTION('',(0.0,0.0,1.0));
#78=AXIS2_PLACEMENT_3D('',#75,#76,#77);
#79=CIRCLE('',#78,2.72696566493737);
#80=EDGE_CURVE('',#34,#74,#79,.T.);
#81=ORIENTED_EDGE('',*,*,#80,.T.);
#82=CARTESIAN_POINT('',(0.0631561995101,-0.0,0.554598085580));
#83=VERTEX_POINT('',#82);
#84=CARTESIAN_POINT('',(0.0631561995101,-0.0,0.554598085580));
#85=DIRECTION('',(0.0,1.0,-0.0));
#86=VECTOR('',#85,1.0);
#87=LINE('',#84,#86);
#88=EDGE_CURVE('',#83,#74,#87,.T.);
#89=ORIENTED_EDGE('',*,*,#88,.F.);
#90=CARTESIAN_POINT('',(-2.61446566903,0.0,0.0381846205574));
#91=DIRECTION('',(0.0,1.0,-0.0));
#92=DIRECTION('',(0.0,0.0,1.0));
#93=AXIS2_PLACEMENT_3D('',#90,#91,#92);
#94=CIRCLE('',#93,2.72696566493737);
#95=EDGE_CURVE('',#83,#43,#94,.T.);
#96=ORIENTED_EDGE('',*,*,#95,.T.);
#97=ORIENTED_EDGE('',*,*,#48,.T.);
#98=EDGE_LOOP('',(#81,#89,#96,#97));
#99=FACE_OUTER_BOUND('',#98,.T.);
#100=CARTESIAN_POINT('',(-2.61446566903,0.0,0.0381846205574));
#101=DIRECTION('',(0.0,1.0,-0.0));
#102=DIRECTION('',(0.0,0.0,1.0));
#103=AXIS2_PLACEMENT_3D('',#100,#101,#102);
#104=CYLINDRICAL_SURFACE('',#103,2.72696566493737);
#105=ADVANCED_FACE('',(#99),#104,.T.);
#106=CARTESIAN_POINT('',(0.0258654204254,6.0,0.547291571212));
#107=VERTEX_POINT('',#106);
#108=CARTESIAN_POINT('',(0.0445000000000,6.0,0.551000000000));
#109=DIRECTION('',(0.0,-1.0,0.0));
#110=DIRECTION('',(1.0,0.0,0.0));
#111=AXIS2_PLACEMENT_3D('',#108,#109,#110);
#112=CIRCLE('',#111,0.019);
#113=EDGE_CURVE('',#74,#107,#112,.T.);
#114=ORIENTED_EDGE('',*,*,#113,.T.);
#115=CARTESIAN_POINT('',(0.0258654204254,-0.0,0.547291571212));
#116=VERTEX_POINT('',#115);
#117=CARTESIAN_POINT('',(0.0258654204254,-0.0,0.547291571212));
#118=DIRECTION('',(0.0,1.0,-0.0));
#119=VECTOR('',#118,1.0);
#120=LINE('',#117,#119);
#121=EDGE_CURVE('',#116,#107,#120,.T.);
#122=ORIENTED_EDGE('',*,*,#121,.F.);
#123=CARTESIAN_POINT('',(0.0445000000000,-0.0,0.551000000000));
#124=DIRECTION('',(0.0,-1.0,0.0));
#125=DIRECTION('',(1.0,0.0,0.0));
#126=AXIS2_PLACEMENT_3D('',#123,#124,#125);
#127=CIRCLE('',#126,0.019);
#128=EDGE_CURVE('',#83,#116,#127,.T.);
#129=ORIENTED_EDGE('',*,*,#128,.F.);
#130=ORIENTED_EDGE('',*,*,#88,.T.);
#131=EDGE_LOOP('',(#114,#122,#129,#130));
#132=FACE_OUTER_BOUND('',#131,.T.);
#133=CARTESIAN_POINT('',(0.0445000000000,-0.0,0.551000000000));
#134=DIRECTION('',(0.0,1.0,-0.0));
#135=DIRECTION('',(1.0,0.0,0.0));
#136=AXIS2_PLACEMENT_3D('',#133,#134,#135);
#137=CYLINDRICAL_SURFACE('',#136,0.019);
#138=ADVANCED_FACE('',(#132),#137,.T.);
#139=CARTESIAN_POINT('',(0.0745000000000,6.0,0.0380000000000));
#140=VERTEX_POINT('',#139);
#141=CARTESIAN_POINT('',(-2.61446566903,6.0,0.0381846205574));
#142=DIRECTION('',(0.0,1.0,-0.0));
#143=DIRECTION('',(1.0,0.0,0.0));
#144=AXIS2_PLACEMENT_3D('',#141,#142,#143);
#145=CIRCLE('',#144,2.688966);
#146=EDGE_CURVE('',#107,#140,#145,.T.);
#147=ORIENTED_EDGE('',*,*,#146,.T.);
#148=CARTESIAN_POINT('',(0.0745000000000,-0.0,0.0380000000000));
#149=VERTEX_POINT('',#148);
#150=CARTESIAN_POINT('',(0.0745000000000,-0.0,0.0380000000000));
#151=DIRECTION('',(0.0,1.0,-0.0));
#152=VECTOR('',#151,1.0);
#153=LINE('',#150,#152);
#154=EDGE_CURVE('',#149,#140,#153,.T.);
#155=ORIENTED_EDGE('',*,*,#154,.F.);
#156=CARTESIAN_POINT('',(-2.61446566903,0.0,0.0381846205574));
#157=DIRECTION('',(0.0,-1.0,0.0));
#158=DIRECTION('',(1.0,0.0,0.0));
#159=AXIS2_PLACEMENT_3D('',#156,#157,#158);
#160=CIRCLE('',#159,2.688966);
#161=EDGE_CURVE('',#149,#116,#160,.T.);
#162=ORIENTED_EDGE('',*,*,#161,.T.);
#163=ORIENTED_EDGE('',*,*,#121,.T.);
#164=EDGE_LOOP('',(#147,#155,#162,#163));
#165=FACE_OUTER_BOUND('',#164,.T.);
#166=CARTESIAN_POINT('',(-2.61446566903,0.0,0.0381846205574));
#167=DIRECTION('',(0.0,1.0,-0.0));
#168=DIRECTION('',(-0.995471283414,-0.0,-0.0950627366379));
#169=AXIS2_PLACEMENT_3D('',#166,#167,#168);
#170=CYLINDRICAL_SURFACE('',#169,2.688966);
#171=ADVANCED_FACE('',(#165),#170,.F.);
#172=CARTESIAN_POINT('',(-0.0745000000000,6.0,0.0380000000000));
#173=VERTEX_POINT('',#172);
#174=CARTESIAN_POINT('',(-0.0745000000000,6.0,0.0380000000000));
#175=DIRECTION('',(-1.0,-0.0,-0.0));
#176=VECTOR('',#175,1.0);
#177=LINE('',#174,#176);
#178=EDGE_CURVE('',#140,#173,#177,.T.);
#179=ORIENTED_EDGE('',*,*,#178,.T.);
#180=CARTESIAN_POINT('',(-0.0745000000000,-0.0,0.0380000000000));
#181=VERTEX_POINT('',#180);
#182=CARTESIAN_POINT('',(-0.0745000000000,-0.0,0.0380000000000));
#183=DIRECTION('',(0.0,1.0,-0.0));
#184=VECTOR('',#183,1.0);
#185=LINE('',#182,#184);
#186=EDGE_CURVE('',#181,#173,#185,.T.);
#187=ORIENTED_EDGE('',*,*,#186,.F.);
#188=CARTESIAN_POINT('',(-0.0745000000000,-0.0,0.0380000000000));
#189=DIRECTION('',(1.0,0.0,0.0));
#190=VECTOR('',#189,1.0);
#191=LINE('',#188,#190);
#192=EDGE_CURVE('',#181,#149,#191,.T.);
#193=ORIENTED_EDGE('',*,*,#192,.T.);
#194=ORIENTED_EDGE('',*,*,#154,.T.);
#195=EDGE_LOOP('',(#179,#187,#193,#194));
#196=FACE_OUTER_BOUND('',#195,.T.);
#197=CARTESIAN_POINT('',(-0.0,-0.0,0.0380000000000));
#198=DIRECTION('',(-0.0,0.0,1.0));
#199=DIRECTION('',(1.0,0.0,0.0));
#200=AXIS2_PLACEMENT_3D('',#197,#198,#199);
#201=PLANE('',#200);
#202=ADVANCED_FACE('',(#196),#201,.T.);
#203=CARTESIAN_POINT('',(-0.0745000000000,6.0,0.856000000000));
#204=VERTEX_POINT('',#203);
#205=CARTESIAN_POINT('',(-0.0745000000000,6.0,0.856000000000));
#206=DIRECTION('',(-0.0,0.0,1.0));
#207=VECTOR('',#206,1.0);
#208=LINE('',#205,#207);
#209=EDGE_CURVE('',#173,#204,#208,.T.);
#210=ORIENTED_EDGE('',*,*,#209,.T.);
#211=CARTESIAN_POINT('',(-0.0745000000000,-0.0,0.856000000000));
#212=VERTEX_POINT('',#211);
#213=CARTESIAN_POINT('',(-0.0745000000000,-0.0,0.856000000000));
#214=DIRECTION('',(0.0,1.0,-0.0));
#215=VECTOR('',#214,1.0);
#216=LINE('',#213,#215);
#217=EDGE_CURVE('',#212,#204,#216,.T.);
#218=ORIENTED_EDGE('',*,*,#217,.F.);
#219=CARTESIAN_POINT('',(-0.0745000000000,-0.0,0.856000000000));
#220=DIRECTION('',(0.0,-0.0,-1.0));
#221=VECTOR('',#220,1.0);
#222=LINE('',#219,#221);
#223=EDGE_CURVE('',#212,#181,#222,.T.);
#224=ORIENTED_EDGE('',*,*,#223,.T.);
#225=ORIENTED_EDGE('',*,*,#186,.T.);
#226=EDGE_LOOP('',(#210,#218,#224,#225));
#227=FACE_OUTER_BOUND('',#226,.T.);
#228=CARTESIAN_POINT('',(-0.0745000000000,-0.0,0.447000000000));
#229=DIRECTION('',(1.0,0.0,0.0));
#230=DIRECTION('',(0.0,-0.0,-1.0));
#231=AXIS2_PLACEMENT_3D('',#228,#229,#230);
#232=PLANE('',#231);
#233=ADVANCED_FACE('',(#227),#232,.T.);
#234=CARTESIAN_POINT('',(-0.112500000000,6.0,0.856000000000));
#235=VERTEX_POINT('',#234);
#236=CARTESIAN_POINT('',(-0.0935000000000,6.0,0.856000000000));
#237=DIRECTION('',(0.0,-1.0,0.0));
#238=DIRECTION('',(1.0,0.0,0.0));
#239=AXIS2_PLACEMENT_3D('',#236,#237,#238);
#240=CIRCLE('',#239,0.019);
#241=EDGE_CURVE('',#204,#235,#240,.T.);
#242=ORIENTED_EDGE('',*,*,#241,.T.);
#243=CARTESIAN_POINT('',(-0.112500000000,-0.0,0.856000000000));
#244=VERTEX_POINT('',#243);
#245=CARTESIAN_POINT('',(-0.112500000000,-0.0,0.856000000000));
#246=DIRECTION('',(0.0,1.0,-0.0));
#247=VECTOR('',#246,1.0);
#248=LINE('',#245,#247);
#249=EDGE_CURVE('',#244,#235,#248,.T.);
#250=ORIENTED_EDGE('',*,*,#249,.F.);
#251=CARTESIAN_POINT('',(-0.0935000000000,-0.0,0.856000000000));
#252=DIRECTION('',(0.0,-1.0,0.0));
#253=DIRECTION('',(1.0,0.0,0.0));
#254=AXIS2_PLACEMENT_3D('',#251,#252,#253);
#255=CIRCLE('',#254,0.019);
#256=EDGE_CURVE('',#212,#244,#255,.T.);
#257=ORIENTED_EDGE('',*,*,#256,.F.);
#258=ORIENTED_EDGE('',*,*,#217,.T.);
#259=EDGE_LOOP('',(#242,#250,#257,#258));
#260=FACE_OUTER_BOUND('',#259,.T.);
#261=CARTESIAN_POINT('',(-0.0935000000000,-0.0,0.856000000000));
#262=DIRECTION('',(0.0,1.0,-0.0));
#263=DIRECTION('',(0.0,0.0,-1.0));
#264=AXIS2_PLACEMENT_3D('',#261,#262,#263);
#265=CYLINDRICAL_SURFACE('',#264,0.019);
#266=ADVANCED_FACE('',(#260),#265,.T.);
#267=CARTESIAN_POINT('',(-0.112500000000,6.0,0.0380000000000));
#268=VERTEX_POINT('',#267);
#269=CARTESIAN_POINT('',(-0.112500000000,6.0,0.856000000000));
#270=DIRECTION('',(0.0,-0.0,-1.0));
#271=VECTOR('',#270,1.0);
#272=LINE('',#269,#271);
#273=EDGE_CURVE('',#235,#268,#272,.T.);
#274=ORIENTED_EDGE('',*,*,#273,.T.);
#275=CARTESIAN_POINT('',(-0.112500000000,-0.0,0.0380000000000));
#276=VERTEX_POINT('',#275);
#277=CARTESIAN_POINT('',(-0.112500000000,-0.0,0.0380000000000));
#278=DIRECTION('',(0.0,1.0,-0.0));
#279=VECTOR('',#278,1.0);
#280=LINE('',#277,#279);
#281=EDGE_CURVE('',#276,#268,#280,.T.);
#282=ORIENTED_EDGE('',*,*,#281,.F.);
#283=CARTESIAN_POINT('',(-0.112500000000,-0.0,0.856000000000));
#284=DIRECTION('',(0.0,-0.0,-1.0));
#285=VECTOR('',#284,1.0);
#286=LINE('',#283,#285);
#287=EDGE_CURVE('',#244,#276,#286,.T.);
#288=ORIENTED_EDGE('',*,*,#287,.F.);
#289=ORIENTED_EDGE('',*,*,#249,.T.);
#290=EDGE_LOOP('',(#274,#282,#288,#289));
#291=FACE_OUTER_BOUND('',#290,.T.);
#292=CARTESIAN_POINT('',(-0.112500000000,-0.0,0.447000000000));
#293=DIRECTION('',(-1.0,0.0,-0.0));
#294=DIRECTION('',(-0.0,0.0,1.0));
#295=AXIS2_PLACEMENT_3D('',#292,#293,#294);
#296=PLANE('',#295);
#297=ADVANCED_FACE('',(#291),#296,.T.);
#298=CARTESIAN_POINT('',(-0.0745000000000,6.0,-0.0));
#299=VERTEX_POINT('',#298);
#300=CARTESIAN_POINT('',(-0.0745000000000,6.0,0.0380000000000));
#301=DIRECTION('',(0.0,-1.0,0.0));
#302=DIRECTION('',(1.0,0.0,0.0));
#303=AXIS2_PLACEMENT_3D('',#300,#301,#302);
#304=CIRCLE('',#303,0.038);
#305=EDGE_CURVE('',#268,#299,#304,.T.);
#306=ORIENTED_EDGE('',*,*,#305,.T.);
#307=CARTESIAN_POINT('',(-0.0745000000000,-0.0,0.0));
#308=VERTEX_POINT('',#307);
#309=CARTESIAN_POINT('',(-0.0745000000000,-0.0,0.0));
#310=DIRECTION('',(0.0,1.0,-0.0));
#311=VECTOR('',#310,1.0);
#312=LINE('',#309,#311);
#313=EDGE_CURVE('',#308,#299,#312,.T.);
#314=ORIENTED_EDGE('',*,*,#313,.F.);
#315=CARTESIAN_POINT('',(-0.0745000000000,-0.0,0.0380000000000));
#316=DIRECTION('',(0.0,1.0,-0.0));
#317=DIRECTION('',(1.0,0.0,0.0));
#318=AXIS2_PLACEMENT_3D('',#315,#316,#317);
#319=CIRCLE('',#318,0.038);
#320=EDGE_CURVE('',#308,#276,#319,.T.);
#321=ORIENTED_EDGE('',*,*,#320,.T.);
#322=ORIENTED_EDGE('',*,*,#281,.T.);
#323=EDGE_LOOP('',(#306,#314,#321,#322));
#324=FACE_OUTER_BOUND('',#323,.T.);
#325=CARTESIAN_POINT('',(-0.0745000000000,-0.0,0.0380000000000));
#326=DIRECTION('',(0.0,1.0,-0.0));
#327=DIRECTION('',(1.0,0.0,0.0));
#328=AXIS2_PLACEMENT_3D('',#325,#326,#327);
#329=CYLINDRICAL_SURFACE('',#328,0.038);
#330=ADVANCED_FACE('',(#324),#329,.T.);
#331=CARTESIAN_POINT('',(-0.0745000000000,6.0,-0.0));
#332=DIRECTION('',(1.0,0.0,0.0));
#333=VECTOR('',#332,1.0);
#334=LINE('',#331,#333);
#335=EDGE_CURVE('',#299,#32,#334,.T.);
#336=ORIENTED_EDGE('',*,*,#335,.T.);
#337=ORIENTED_EDGE('',*,*,#63,.F.);
#338=CARTESIAN_POINT('',(-0.0745000000000,-0.0,0.0));
#339=DIRECTION('',(1.0,0.0,0.0));
#340=VECTOR('',#339,1.0);
#341=LINE('',#338,#340);
#342=EDGE_CURVE('',#308,#51,#341,.T.);
#343=ORIENTED_EDGE('',*,*,#342,.F.);
#344=ORIENTED_EDGE('',*,*,#313,.T.);
#345=EDGE_LOOP('',(#336,#337,#343,#344));
#346=FACE_OUTER_BOUND('',#345,.T.);
#347=CARTESIAN_POINT('',(0.0,-0.0,0.0));
#348=DIRECTION('',(0.0,-0.0,-1.0));
#349=DIRECTION('',(-1.0,-0.0,-0.0));
#350=AXIS2_PLACEMENT_3D('',#347,#348,#349);
#351=PLANE('',#350);
#352=ADVANCED_FACE('',(#346),#351,.T.);
#353=ORIENTED_EDGE('',*,*,#40,.F.);
#354=ORIENTED_EDGE('',*,*,#335,.F.);
#355=ORIENTED_EDGE('',*,*,#305,.F.);
#356=ORIENTED_EDGE('',*,*,#273,.F.);
#357=ORIENTED_EDGE('',*,*,#241,.F.);
#358=ORIENTED_EDGE('',*,*,#209,.F.);
#359=ORIENTED_EDGE('',*,*,#178,.F.);
#360=ORIENTED_EDGE('',*,*,#146,.F.);
#361=ORIENTED_EDGE('',*,*,#113,.F.);
#362=ORIENTED_EDGE('',*,*,#80,.F.);
#363=EDGE_LOOP('',(#353,#354,#355,#356,#357,#358,#359,#360,#361,#362));
#364=FACE_OUTER_BOUND('',#363,.T.);
#365=CARTESIAN_POINT('',(-0.0279635750000,6.0,-0.0));
#366=DIRECTION('',(0.0,1.0,-0.0));
#367=DIRECTION('',(-1.0,0.0,0.0));
#368=AXIS2_PLACEMENT_3D('',#365,#366,#367);
#369=PLANE('',#368);
#370=ADVANCED_FACE('',(#364),#369,.T.);
#371=ORIENTED_EDGE('',*,*,#342,.T.);
#372=ORIENTED_EDGE('',*,*,#57,.F.);
#373=ORIENTED_EDGE('',*,*,#95,.F.);
#374=ORIENTED_EDGE('',*,*,#128,.T.);
#375=ORIENTED_EDGE('',*,*,#161,.F.);
#376=ORIENTED_EDGE('',*,*,#192,.F.);
#377=ORIENTED_EDGE('',*,*,#223,.F.);
#378=ORIENTED_EDGE('',*,*,#256,.T.);
#379=ORIENTED_EDGE('',*,*,#287,.T.);
#380=ORIENTED_EDGE('',*,*,#320,.F.);
#381=EDGE_LOOP('',(#371,#372,#373,#374,#375,#376,#377,#378,#379,#380));
#382=FACE_OUTER_BOUND('',#381,.T.);
#383=CARTESIAN_POINT('',(-0.0279635750000,-0.0,0.0));
#384=DIRECTION('',(-0.0,1.0,-0.0));
#385=DIRECTION('',(-1.0,-0.0,0.0));
#386=AXIS2_PLACEMENT_3D('',#383,#384,#385);
#387=PLANE('',#386);
#388=ADVANCED_FACE('',(#382),#387,.F.);
#389=CLOSED_SHELL('',(#72,#105,#138,#171,#202,#233,#266,#297,#330,#352,#370,#388));
#390=MANIFOLD_SOLID_BREP('',#389);
#391=COLOUR_RGB('',1.0,0.0,0.0);
#392=FILL_AREA_STYLE_COLOUR('',#391);
#393=FILL_AREA_STYLE('',(#392));
#394=SURFACE_STYLE_FILL_AREA(#393);
#395=SURFACE_SIDE_STYLE('',(#394));
#396=SURFACE_STYLE_USAGE(.BOTH.,#395);
#397=PRESENTATION_STYLE_ASSIGNMENT((#396));
#398=STYLED_ITEM('',(#397),#390);
#399=ADVANCED_BREP_SHAPE_REPRESENTATION('',(#390,#23),#18);
#400=SHAPE_DEFINITION_REPRESENTATION(#30,#399);
#401=DERIVED_UNIT_ELEMENT(#12,3.0);
#402=VOLUME_UNIT((#401));
#403=NAME_ATTRIBUTE('CUBIC MILLIMETRE',#402);
#404=DERIVED_UNIT_ELEMENT(#12,2.0);
#405=AREA_UNIT((#404));
#406=NAME_ATTRIBUTE('SQUARE MILLIMETRE',#405);
#407=SHAPE_ASPECT('#407','solid #390',#30,.F.);
#408=GEOMETRIC_ITEM_SPECIFIC_USAGE('Shape for Validation Properties','',#407,#399,#390);
#409=MEASURE_REPRESENTATION_ITEM('volume measure',VOLUME_MEASURE(0.358295585017226),#402);
#410=REPRESENTATION('volume',(#409),#18);
#411=PROPERTY_DEFINITION('volume of #390','geometric validation property',#407);
#412=PROPERTY_DEFINITION_REPRESENTATION(#411,#410);
#413=MEASURE_REPRESENTATION_ITEM('surface area measure',AREA_MEASURE(19.3454893212515),#405);
#414=REPRESENTATION('surface area',(#413),#18);
#415=PROPERTY_DEFINITION('area of #390','geometric validation property',#407);
#416=PROPERTY_DEFINITION_REPRESENTATION(#415,#414);
#417=CARTESIAN_POINT('centre point',(-0.0245004338094,3.0,0.345522313536));
#418=REPRESENTATION('centroid',(#417),#18);
#419=PROPERTY_DEFINITION('centroid of #390','geometric validation property',#407);
#420=PROPERTY_DEFINITION_REPRESENTATION(#419,#418);
#421=CARTESIAN_POINT('bounding box corner point',(-0.112500000000,-0.0,-0.0));
#422=CARTESIAN_POINT('bounding box corner point',(0.112500000000,6.0,0.875000000000));
#423=REPRESENTATION('bounding box',(#421,#422),#18);
#424=PROPERTY_DEFINITION('bounding box of #390','geometric validation property',#407);
#425=PROPERTY_DEFINITION_REPRESENTATION(#424,#423);
#426=PRESENTATION_LAYER_ASSIGNMENT('1','Unnamed [1]',(#390));
ENDSEC;
END-ISO-10303-21;
