ISO-10303-21;
HEADER;
FILE_DESCRIPTION(('', 'CAx-IF Rec.Pracs.---Representation and Presentation of Product Manufacturing Information (PMI)---4.0---2014-10-13'),'2;1');
FILE_NAME('SG2666.STP', '2024-11-05T12:42:45',(''), (''), 'Kubotek Kosmos 3D Framework Version 6.0.14858.14858', 'Kubotek Kosmos 3D Framework', '');
FILE_SCHEMA(('AP242_MANAGED_MODEL_BASED_3D_ENGINEERING_MIM_LF  { 1 0 10303 442 4 1 4 }'));
ENDSEC;
DATA;
#1=PRODUCT_DEFINITION_CONTEXT('',#4,'design');
#2=PRODUCT_CONTEXT('',#4,'mechanical');
#3=APPLICATION_PROTOCOL_DEFINITION('international standard','ap242_managed_model_based_3d_engineering',2011,#4);
#4=APPLICATION_CONTEXT('managed model based 3d engineering');
#10=DIMENSIONAL_EXPONENTS(1.0,0.0,0.0,0.0,0.0,0.0,0.0);
#11=DIMENSIONAL_EXPONENTS(0.0,0.0,0.0,0.0,0.0,0.0,0.0);
#12=(LENGTH_UNIT()NAMED_UNIT(*)SI_UNIT(.MILLI.,.METRE.));
#13=(NAMED_UNIT(*)PLANE_ANGLE_UNIT()SI_UNIT($,.RADIAN.));
#14=(NAMED_UNIT(*)SI_UNIT($,.STERADIAN.)SOLID_ANGLE_UNIT());
#15=LENGTH_MEASURE_WITH_UNIT(LENGTH_MEASURE(25.4),#12);
#16=(CONVERSION_BASED_UNIT('INCH',#15)LENGTH_UNIT()NAMED_UNIT(#10));
#17=UNCERTAINTY_MEASURE_WITH_UNIT(LENGTH_MEASURE(1.0E-006),#16,'','');
#18=(GEOMETRIC_REPRESENTATION_CONTEXT(3)GLOBAL_UNCERTAINTY_ASSIGNED_CONTEXT((#17))GLOBAL_UNIT_ASSIGNED_CONTEXT((#16,#13,#14))REPRESENTATION_CONTEXT('NONE','WORKSPACE'));
#20=CARTESIAN_POINT('',(0.0,0.0,0.0));
#21=DIRECTION('',(0.0,0.0,1.0));
#22=DIRECTION('',(1.0,0.0,0.0));
#23=AXIS2_PLACEMENT_3D('',#20,#21,#22);
#24=PRODUCT('','','',(#2));
#25=PRODUCT_DEFINITION_FORMATION_WITH_SPECIFIED_SOURCE('','',#24,.NOT_KNOWN.);
#26=PRODUCT_CATEGORY('Part','');
#27=PRODUCT_RELATED_PRODUCT_CATEGORY('detail','',(#24));
#28=PRODUCT_CATEGORY_RELATIONSHIP('','',#26,#27);
#29=PRODUCT_DEFINITION('','',#25,#1);
#30=PRODUCT_DEFINITION_SHAPE('NONE','NONE',#29);
#31=CARTESIAN_POINT('',(0.0225002301926,7.59383019130,0.184857692822));
#32=VERTEX_POINT('',#31);
#33=CARTESIAN_POINT('',(0.372846607273,7.59383019130,0.145486414993));
#34=VERTEX_POINT('',#33);
#35=CARTESIAN_POINT('',(0.0,7.59383019130,-1.59383019130));
#36=DIRECTION('',(0.0,1.0,-0.0));
#37=DIRECTION('',(1.0,0.0,0.0));
#38=AXIS2_PLACEMENT_3D('',#35,#36,#37);
#39=CIRCLE('',#38,1.77883019130323);
#40=EDGE_CURVE('',#32,#34,#39,.T.);
#41=ORIENTED_EDGE('',*,*,#40,.T.);
#42=CARTESIAN_POINT('',(0.372846607273,1.59383019130,0.145486414993));
#43=VERTEX_POINT('',#42);
#44=CARTESIAN_POINT('',(0.372846607273,1.59383019130,0.145486414993));
#45=DIRECTION('',(0.0,1.0,0.0));
#46=VECTOR('',#45,1.0);
#47=LINE('',#44,#46);
#48=EDGE_CURVE('',#43,#34,#47,.T.);
#49=ORIENTED_EDGE('',*,*,#48,.F.);
#50=CARTESIAN_POINT('',(0.0225002301926,1.59383019130,0.184857692822));
#51=VERTEX_POINT('',#50);
#52=CARTESIAN_POINT('',(0.0,1.59383019130,-1.59383019130));
#53=DIRECTION('',(0.0,-1.0,0.0));
#54=DIRECTION('',(1.0,0.0,0.0));
#55=AXIS2_PLACEMENT_3D('',#52,#53,#54);
#56=CIRCLE('',#55,1.77883019130323);
#57=EDGE_CURVE('',#43,#51,#56,.T.);
#58=ORIENTED_EDGE('',*,*,#57,.T.);
#59=CARTESIAN_POINT('',(0.0225002301926,1.59383019130,0.184857692822));
#60=DIRECTION('',(0.0,1.0,0.0));
#61=VECTOR('',#60,1.0);
#62=LINE('',#59,#61);
#63=EDGE_CURVE('',#51,#32,#62,.T.);
#64=ORIENTED_EDGE('',*,*,#63,.T.);
#65=EDGE_LOOP('',(#41,#49,#58,#64));
#66=FACE_OUTER_BOUND('',#65,.T.);
#67=CARTESIAN_POINT('',(0.0,1.59383019130,-1.59383019130));
#68=DIRECTION('',(0.0,1.0,0.0));
#69=DIRECTION('',(1.0,-0.0,0.0));
#70=AXIS2_PLACEMENT_3D('',#67,#68,#69);
#71=CYLINDRICAL_SURFACE('',#70,1.77883019130323);
#72=ADVANCED_FACE('',(#66),#71,.F.);
#73=CARTESIAN_POINT('',(0.382278711205,7.59383019130,0.189486725978));
#74=VERTEX_POINT('',#73);
#75=CARTESIAN_POINT('',(0.377500230193,7.59383019130,0.167499906168));
#76=DIRECTION('',(0.0,-1.0,0.0));
#77=DIRECTION('',(1.0,0.0,0.0));
#78=AXIS2_PLACEMENT_3D('',#75,#76,#77);
#79=CIRCLE('',#78,0.0225);
#80=EDGE_CURVE('',#34,#74,#79,.T.);
#81=ORIENTED_EDGE('',*,*,#80,.T.);
#82=CARTESIAN_POINT('',(0.382278711205,1.59383019130,0.189486725978));
#83=VERTEX_POINT('',#82);
#84=CARTESIAN_POINT('',(0.382278711205,1.59383019130,0.189486725978));
#85=DIRECTION('',(0.0,1.0,0.0));
#86=VECTOR('',#85,1.0);
#87=LINE('',#84,#86);
#88=EDGE_CURVE('',#83,#74,#87,.T.);
#89=ORIENTED_EDGE('',*,*,#88,.F.);
#90=CARTESIAN_POINT('',(0.377500230193,1.59383019130,0.167499906168));
#91=DIRECTION('',(0.0,-1.0,0.0));
#92=DIRECTION('',(1.0,0.0,0.0));
#93=AXIS2_PLACEMENT_3D('',#90,#91,#92);
#94=CIRCLE('',#93,0.0225);
#95=EDGE_CURVE('',#43,#83,#94,.T.);
#96=ORIENTED_EDGE('',*,*,#95,.F.);
#97=ORIENTED_EDGE('',*,*,#48,.T.);
#98=EDGE_LOOP('',(#81,#89,#96,#97));
#99=FACE_OUTER_BOUND('',#98,.T.);
#100=CARTESIAN_POINT('',(0.377500230193,1.59383019130,0.167499906168));
#101=DIRECTION('',(0.0,1.0,0.0));
#102=DIRECTION('',(-0.977786632942,0.0,0.209602720499));
#103=AXIS2_PLACEMENT_3D('',#100,#101,#102);
#104=CYLINDRICAL_SURFACE('',#103,0.0225);
#105=ADVANCED_FACE('',(#99),#104,.T.);
#106=CARTESIAN_POINT('',(-0.382151812708,7.59383019130,0.189513825130));
#107=VERTEX_POINT('',#106);
#108=CARTESIAN_POINT('',(2.30192647166E-07,7.59383019130,-1.59382399328));
#109=DIRECTION('',(0.0,-1.0,0.0));
#110=DIRECTION('',(1.0,0.0,0.0));
#111=AXIS2_PLACEMENT_3D('',#108,#109,#110);
#112=CIRCLE('',#111,1.82382399328498);
#113=EDGE_CURVE('',#74,#107,#112,.T.);
#114=ORIENTED_EDGE('',*,*,#113,.T.);
#115=CARTESIAN_POINT('',(-0.382151812708,1.59383019130,0.189513825130));
#116=VERTEX_POINT('',#115);
#117=CARTESIAN_POINT('',(-0.382151812708,1.59383019130,0.189513825130));
#118=DIRECTION('',(0.0,1.0,0.0));
#119=VECTOR('',#118,1.0);
#120=LINE('',#117,#119);
#121=EDGE_CURVE('',#116,#107,#120,.T.);
#122=ORIENTED_EDGE('',*,*,#121,.F.);
#123=CARTESIAN_POINT('',(2.30192647166E-07,1.59383019130,-1.59382399328));
#124=DIRECTION('',(0.0,-1.0,0.0));
#125=DIRECTION('',(1.0,0.0,0.0));
#126=AXIS2_PLACEMENT_3D('',#123,#124,#125);
#127=CIRCLE('',#126,1.82382399328498);
#128=EDGE_CURVE('',#83,#116,#127,.T.);
#129=ORIENTED_EDGE('',*,*,#128,.F.);
#130=ORIENTED_EDGE('',*,*,#88,.T.);
#131=EDGE_LOOP('',(#114,#122,#129,#130));
#132=FACE_OUTER_BOUND('',#131,.T.);
#133=CARTESIAN_POINT('',(2.30192647166E-07,1.59383019130,-1.59382399328));
#134=DIRECTION('',(0.0,1.0,0.0));
#135=DIRECTION('',(1.0,-0.0,0.0));
#136=AXIS2_PLACEMENT_3D('',#133,#134,#135);
#137=CYLINDRICAL_SURFACE('',#136,1.82382399328498);
#138=ADVANCED_FACE('',(#132),#137,.T.);
#139=CARTESIAN_POINT('',(-0.372721288801,7.59383019130,0.145513274021));
#140=VERTEX_POINT('',#139);
#141=CARTESIAN_POINT('',(-0.377499769807,7.59383019130,0.167500000000));
#142=DIRECTION('',(0.0,-1.0,0.0));
#143=DIRECTION('',(1.0,0.0,0.0));
#144=AXIS2_PLACEMENT_3D('',#141,#142,#143);
#145=CIRCLE('',#144,0.0225);
#146=EDGE_CURVE('',#107,#140,#145,.T.);
#147=ORIENTED_EDGE('',*,*,#146,.T.);
#148=CARTESIAN_POINT('',(-0.372721288801,1.59383019130,0.145513274021));
#149=VERTEX_POINT('',#148);
#150=CARTESIAN_POINT('',(-0.372721288801,1.59383019130,0.145513274021));
#151=DIRECTION('',(0.0,1.0,0.0));
#152=VECTOR('',#151,1.0);
#153=LINE('',#150,#152);
#154=EDGE_CURVE('',#149,#140,#153,.T.);
#155=ORIENTED_EDGE('',*,*,#154,.F.);
#156=CARTESIAN_POINT('',(-0.377499769807,1.59383019130,0.167500000000));
#157=DIRECTION('',(0.0,-1.0,0.0));
#158=DIRECTION('',(1.0,0.0,0.0));
#159=AXIS2_PLACEMENT_3D('',#156,#157,#158);
#160=CIRCLE('',#159,0.0225);
#161=EDGE_CURVE('',#116,#149,#160,.T.);
#162=ORIENTED_EDGE('',*,*,#161,.F.);
#163=ORIENTED_EDGE('',*,*,#121,.T.);
#164=EDGE_LOOP('',(#147,#155,#162,#163));
#165=FACE_OUTER_BOUND('',#164,.T.);
#166=CARTESIAN_POINT('',(-0.377499769807,1.59383019130,0.167500000000));
#167=DIRECTION('',(0.0,1.0,0.0));
#168=DIRECTION('',(1.0,-0.0,0.0));
#169=AXIS2_PLACEMENT_3D('',#166,#167,#168);
#170=CYLINDRICAL_SURFACE('',#169,0.0225);
#171=ADVANCED_FACE('',(#165),#170,.T.);
#172=CARTESIAN_POINT('',(-0.0224997698074,7.59383019130,0.184857698646));
#173=VERTEX_POINT('',#172);
#174=CARTESIAN_POINT('',(0.0,7.59383019130,-1.59383019130));
#175=DIRECTION('',(0.0,1.0,-0.0));
#176=DIRECTION('',(1.0,0.0,0.0));
#177=AXIS2_PLACEMENT_3D('',#174,#175,#176);
#178=CIRCLE('',#177,1.77883019130323);
#179=EDGE_CURVE('',#140,#173,#178,.T.);
#180=ORIENTED_EDGE('',*,*,#179,.T.);
#181=CARTESIAN_POINT('',(-0.0224997698074,1.59383019130,0.184857698646));
#182=VERTEX_POINT('',#181);
#183=CARTESIAN_POINT('',(-0.0224997698074,1.59383019130,0.184857698646));
#184=DIRECTION('',(0.0,1.0,0.0));
#185=VECTOR('',#184,1.0);
#186=LINE('',#183,#185);
#187=EDGE_CURVE('',#182,#173,#186,.T.);
#188=ORIENTED_EDGE('',*,*,#187,.F.);
#189=CARTESIAN_POINT('',(0.0,1.59383019130,-1.59383019130));
#190=DIRECTION('',(0.0,-1.0,0.0));
#191=DIRECTION('',(1.0,0.0,0.0));
#192=AXIS2_PLACEMENT_3D('',#189,#190,#191);
#193=CIRCLE('',#192,1.77883019130323);
#194=EDGE_CURVE('',#182,#149,#193,.T.);
#195=ORIENTED_EDGE('',*,*,#194,.T.);
#196=ORIENTED_EDGE('',*,*,#154,.T.);
#197=EDGE_LOOP('',(#180,#188,#195,#196));
#198=FACE_OUTER_BOUND('',#197,.T.);
#199=CARTESIAN_POINT('',(0.0,1.59383019130,-1.59383019130));
#200=DIRECTION('',(0.0,1.0,0.0));
#201=DIRECTION('',(1.0,-0.0,0.0));
#202=AXIS2_PLACEMENT_3D('',#199,#200,#201);
#203=CYLINDRICAL_SURFACE('',#202,1.77883019130323);
#204=ADVANCED_FACE('',(#198),#203,.F.);
#205=CARTESIAN_POINT('',(-0.0224997698074,7.59383019130,0.0450000000000));
#206=VERTEX_POINT('',#205);
#207=CARTESIAN_POINT('',(-0.0224997698074,7.59383019130,0.184857698646));
#208=DIRECTION('',(0.0,0.0,-1.0));
#209=VECTOR('',#208,1.0);
#210=LINE('',#207,#209);
#211=EDGE_CURVE('',#173,#206,#210,.T.);
#212=ORIENTED_EDGE('',*,*,#211,.T.);
#213=CARTESIAN_POINT('',(-0.0224997698074,1.59383019130,0.0450000000000));
#214=VERTEX_POINT('',#213);
#215=CARTESIAN_POINT('',(-0.0224997698074,1.59383019130,0.0450000000000));
#216=DIRECTION('',(0.0,1.0,0.0));
#217=VECTOR('',#216,1.0);
#218=LINE('',#215,#217);
#219=EDGE_CURVE('',#214,#206,#218,.T.);
#220=ORIENTED_EDGE('',*,*,#219,.F.);
#221=CARTESIAN_POINT('',(-0.0224997698074,1.59383019130,0.184857698646));
#222=DIRECTION('',(0.0,0.0,-1.0));
#223=VECTOR('',#222,1.0);
#224=LINE('',#221,#223);
#225=EDGE_CURVE('',#182,#214,#224,.T.);
#226=ORIENTED_EDGE('',*,*,#225,.F.);
#227=ORIENTED_EDGE('',*,*,#187,.T.);
#228=EDGE_LOOP('',(#212,#220,#226,#227));
#229=FACE_OUTER_BOUND('',#228,.T.);
#230=CARTESIAN_POINT('',(-0.0224997698074,1.59383019130,0.114928849323));
#231=DIRECTION('',(-1.0,0.0,0.0));
#232=DIRECTION('',(-0.0,-0.0,1.0));
#233=AXIS2_PLACEMENT_3D('',#230,#231,#232);
#234=PLANE('',#233);
#235=ADVANCED_FACE('',(#229),#234,.T.);
#236=CARTESIAN_POINT('',(-0.677499769807,7.59383019130,0.0450000000000));
#237=VERTEX_POINT('',#236);
#238=CARTESIAN_POINT('',(-0.677499769807,7.59383019130,0.0450000000000));
#239=DIRECTION('',(-1.0,-0.0,-0.0));
#240=VECTOR('',#239,1.0);
#241=LINE('',#238,#240);
#242=EDGE_CURVE('',#206,#237,#241,.T.);
#243=ORIENTED_EDGE('',*,*,#242,.T.);
#244=CARTESIAN_POINT('',(-0.677499769807,1.59383019130,0.0450000000000));
#245=VERTEX_POINT('',#244);
#246=CARTESIAN_POINT('',(-0.677499769807,1.59383019130,0.0450000000000));
#247=DIRECTION('',(0.0,1.0,0.0));
#248=VECTOR('',#247,1.0);
#249=LINE('',#246,#248);
#250=EDGE_CURVE('',#245,#237,#249,.T.);
#251=ORIENTED_EDGE('',*,*,#250,.F.);
#252=CARTESIAN_POINT('',(-0.677499769807,1.59383019130,0.0450000000000));
#253=DIRECTION('',(1.0,0.0,0.0));
#254=VECTOR('',#253,1.0);
#255=LINE('',#252,#254);
#256=EDGE_CURVE('',#245,#214,#255,.T.);
#257=ORIENTED_EDGE('',*,*,#256,.T.);
#258=ORIENTED_EDGE('',*,*,#219,.T.);
#259=EDGE_LOOP('',(#243,#251,#257,#258));
#260=FACE_OUTER_BOUND('',#259,.T.);
#261=CARTESIAN_POINT('',(-0.349999769807,1.59383019130,0.0450000000000));
#262=DIRECTION('',(0.0,0.0,1.0));
#263=DIRECTION('',(1.0,0.0,0.0));
#264=AXIS2_PLACEMENT_3D('',#261,#262,#263);
#265=PLANE('',#264);
#266=ADVANCED_FACE('',(#260),#265,.T.);
#267=CARTESIAN_POINT('',(-0.677499769807,7.59383019130,0.0));
#268=VERTEX_POINT('',#267);
#269=CARTESIAN_POINT('',(-0.677499769807,7.59383019130,0.0225000000000));
#270=DIRECTION('',(0.0,-1.0,0.0));
#271=DIRECTION('',(1.0,0.0,0.0));
#272=AXIS2_PLACEMENT_3D('',#269,#270,#271);
#273=CIRCLE('',#272,0.0225);
#274=EDGE_CURVE('',#237,#268,#273,.T.);
#275=ORIENTED_EDGE('',*,*,#274,.T.);
#276=CARTESIAN_POINT('',(-0.677499769807,1.59383019130,0.0));
#277=VERTEX_POINT('',#276);
#278=CARTESIAN_POINT('',(-0.677499769807,1.59383019130,0.0));
#279=DIRECTION('',(0.0,1.0,0.0));
#280=VECTOR('',#279,1.0);
#281=LINE('',#278,#280);
#282=EDGE_CURVE('',#277,#268,#281,.T.);
#283=ORIENTED_EDGE('',*,*,#282,.F.);
#284=CARTESIAN_POINT('',(-0.677499769807,1.59383019130,0.0225000000000));
#285=DIRECTION('',(0.0,-1.0,0.0));
#286=DIRECTION('',(1.0,0.0,0.0));
#287=AXIS2_PLACEMENT_3D('',#284,#285,#286);
#288=CIRCLE('',#287,0.0225);
#289=EDGE_CURVE('',#245,#277,#288,.T.);
#290=ORIENTED_EDGE('',*,*,#289,.F.);
#291=ORIENTED_EDGE('',*,*,#250,.T.);
#292=EDGE_LOOP('',(#275,#283,#290,#291));
#293=FACE_OUTER_BOUND('',#292,.T.);
#294=CARTESIAN_POINT('',(-0.677499769807,1.59383019130,0.0225000000000));
#295=DIRECTION('',(0.0,1.0,0.0));
#296=DIRECTION('',(1.0,-0.0,0.0));
#297=AXIS2_PLACEMENT_3D('',#294,#295,#296);
#298=CYLINDRICAL_SURFACE('',#297,0.0225);
#299=ADVANCED_FACE('',(#293),#298,.T.);
#300=CARTESIAN_POINT('',(0.677500230193,7.59383019130,0.0));
#301=VERTEX_POINT('',#300);
#302=CARTESIAN_POINT('',(-0.677499769807,7.59383019130,0.0));
#303=DIRECTION('',(1.0,0.0,0.0));
#304=VECTOR('',#303,1.0);
#305=LINE('',#302,#304);
#306=EDGE_CURVE('',#268,#301,#305,.T.);
#307=ORIENTED_EDGE('',*,*,#306,.T.);
#308=CARTESIAN_POINT('',(0.677500230193,1.59383019130,0.0));
#309=VERTEX_POINT('',#308);
#310=CARTESIAN_POINT('',(0.677500230193,1.59383019130,0.0));
#311=DIRECTION('',(0.0,1.0,0.0));
#312=VECTOR('',#311,1.0);
#313=LINE('',#310,#312);
#314=EDGE_CURVE('',#309,#301,#313,.T.);
#315=ORIENTED_EDGE('',*,*,#314,.F.);
#316=CARTESIAN_POINT('',(-0.677499769807,1.59383019130,0.0));
#317=DIRECTION('',(1.0,0.0,0.0));
#318=VECTOR('',#317,1.0);
#319=LINE('',#316,#318);
#320=EDGE_CURVE('',#277,#309,#319,.T.);
#321=ORIENTED_EDGE('',*,*,#320,.F.);
#322=ORIENTED_EDGE('',*,*,#282,.T.);
#323=EDGE_LOOP('',(#307,#315,#321,#322));
#324=FACE_OUTER_BOUND('',#323,.T.);
#325=CARTESIAN_POINT('',(2.30192646167E-07,1.59383019130,0.0));
#326=DIRECTION('',(0.0,0.0,-1.0));
#327=DIRECTION('',(-1.0,-0.0,-0.0));
#328=AXIS2_PLACEMENT_3D('',#325,#326,#327);
#329=PLANE('',#328);
#330=ADVANCED_FACE('',(#324),#329,.T.);
#331=CARTESIAN_POINT('',(0.677500230193,7.59383019130,0.0450000000000));
#332=VERTEX_POINT('',#331);
#333=CARTESIAN_POINT('',(0.677500230193,7.59383019130,0.0225000000000));
#334=DIRECTION('',(0.0,-1.0,0.0));
#335=DIRECTION('',(1.0,0.0,0.0));
#336=AXIS2_PLACEMENT_3D('',#333,#334,#335);
#337=CIRCLE('',#336,0.0225);
#338=EDGE_CURVE('',#301,#332,#337,.T.);
#339=ORIENTED_EDGE('',*,*,#338,.T.);
#340=CARTESIAN_POINT('',(0.677500230193,1.59383019130,0.0450000000000));
#341=VERTEX_POINT('',#340);
#342=CARTESIAN_POINT('',(0.677500230193,1.59383019130,0.0450000000000));
#343=DIRECTION('',(0.0,1.0,0.0));
#344=VECTOR('',#343,1.0);
#345=LINE('',#342,#344);
#346=EDGE_CURVE('',#341,#332,#345,.T.);
#347=ORIENTED_EDGE('',*,*,#346,.F.);
#348=CARTESIAN_POINT('',(0.677500230193,1.59383019130,0.0225000000000));
#349=DIRECTION('',(0.0,-1.0,0.0));
#350=DIRECTION('',(1.0,0.0,0.0));
#351=AXIS2_PLACEMENT_3D('',#348,#349,#350);
#352=CIRCLE('',#351,0.0225);
#353=EDGE_CURVE('',#309,#341,#352,.T.);
#354=ORIENTED_EDGE('',*,*,#353,.F.);
#355=ORIENTED_EDGE('',*,*,#314,.T.);
#356=EDGE_LOOP('',(#339,#347,#354,#355));
#357=FACE_OUTER_BOUND('',#356,.T.);
#358=CARTESIAN_POINT('',(0.677500230193,1.59383019130,0.0225000000000));
#359=DIRECTION('',(0.0,1.0,0.0));
#360=DIRECTION('',(-1.0,0.0,0.0));
#361=AXIS2_PLACEMENT_3D('',#358,#359,#360);
#362=CYLINDRICAL_SURFACE('',#361,0.0225);
#363=ADVANCED_FACE('',(#357),#362,.T.);
#364=CARTESIAN_POINT('',(0.0225002301926,7.59383019130,0.0450000000000));
#365=VERTEX_POINT('',#364);
#366=CARTESIAN_POINT('',(0.0225002301926,7.59383019130,0.0450000000000));
#367=DIRECTION('',(-1.0,-0.0,-0.0));
#368=VECTOR('',#367,1.0);
#369=LINE('',#366,#368);
#370=EDGE_CURVE('',#332,#365,#369,.T.);
#371=ORIENTED_EDGE('',*,*,#370,.T.);
#372=CARTESIAN_POINT('',(0.0225002301926,1.59383019130,0.0450000000000));
#373=VERTEX_POINT('',#372);
#374=CARTESIAN_POINT('',(0.0225002301926,1.59383019130,0.0450000000000));
#375=DIRECTION('',(0.0,1.0,0.0));
#376=VECTOR('',#375,1.0);
#377=LINE('',#374,#376);
#378=EDGE_CURVE('',#373,#365,#377,.T.);
#379=ORIENTED_EDGE('',*,*,#378,.F.);
#380=CARTESIAN_POINT('',(0.0225002301926,1.59383019130,0.0450000000000));
#381=DIRECTION('',(1.0,0.0,0.0));
#382=VECTOR('',#381,1.0);
#383=LINE('',#380,#382);
#384=EDGE_CURVE('',#373,#341,#383,.T.);
#385=ORIENTED_EDGE('',*,*,#384,.T.);
#386=ORIENTED_EDGE('',*,*,#346,.T.);
#387=EDGE_LOOP('',(#371,#379,#385,#386));
#388=FACE_OUTER_BOUND('',#387,.T.);
#389=CARTESIAN_POINT('',(0.350000230193,1.59383019130,0.0450000000000));
#390=DIRECTION('',(0.0,0.0,1.0));
#391=DIRECTION('',(1.0,0.0,0.0));
#392=AXIS2_PLACEMENT_3D('',#389,#390,#391);
#393=PLANE('',#392);
#394=ADVANCED_FACE('',(#388),#393,.T.);
#395=CARTESIAN_POINT('',(0.0225002301926,7.59383019130,0.184857692822));
#396=DIRECTION('',(0.0,0.0,1.0));
#397=VECTOR('',#396,1.0);
#398=LINE('',#395,#397);
#399=EDGE_CURVE('',#365,#32,#398,.T.);
#400=ORIENTED_EDGE('',*,*,#399,.T.);
#401=ORIENTED_EDGE('',*,*,#63,.F.);
#402=CARTESIAN_POINT('',(0.0225002301926,1.59383019130,0.184857692822));
#403=DIRECTION('',(0.0,0.0,-1.0));
#404=VECTOR('',#403,1.0);
#405=LINE('',#402,#404);
#406=EDGE_CURVE('',#51,#373,#405,.T.);
#407=ORIENTED_EDGE('',*,*,#406,.T.);
#408=ORIENTED_EDGE('',*,*,#378,.T.);
#409=EDGE_LOOP('',(#400,#401,#407,#408));
#410=FACE_OUTER_BOUND('',#409,.T.);
#411=CARTESIAN_POINT('',(0.0225002301926,1.59383019130,0.114928846411));
#412=DIRECTION('',(1.0,-0.0,0.0));
#413=DIRECTION('',(0.0,0.0,-1.0));
#414=AXIS2_PLACEMENT_3D('',#411,#412,#413);
#415=PLANE('',#414);
#416=ADVANCED_FACE('',(#410),#415,.T.);
#417=ORIENTED_EDGE('',*,*,#40,.F.);
#418=ORIENTED_EDGE('',*,*,#399,.F.);
#419=ORIENTED_EDGE('',*,*,#370,.F.);
#420=ORIENTED_EDGE('',*,*,#338,.F.);
#421=ORIENTED_EDGE('',*,*,#306,.F.);
#422=ORIENTED_EDGE('',*,*,#274,.F.);
#423=ORIENTED_EDGE('',*,*,#242,.F.);
#424=ORIENTED_EDGE('',*,*,#211,.F.);
#425=ORIENTED_EDGE('',*,*,#179,.F.);
#426=ORIENTED_EDGE('',*,*,#146,.F.);
#427=ORIENTED_EDGE('',*,*,#113,.F.);
#428=ORIENTED_EDGE('',*,*,#80,.F.);
#429=EDGE_LOOP('',(#417,#418,#419,#420,#421,#422,#423,#424,#425,#426,#427,#428));
#430=FACE_OUTER_BOUND('',#429,.T.);
#431=CARTESIAN_POINT('',(0.0225002301926,7.59383019130,0.141176638911));
#432=DIRECTION('',(0.0,1.0,0.0));
#433=DIRECTION('',(-1.0,0.0,0.0));
#434=AXIS2_PLACEMENT_3D('',#431,#432,#433);
#435=PLANE('',#434);
#436=ADVANCED_FACE('',(#430),#435,.T.);
#437=ORIENTED_EDGE('',*,*,#406,.F.);
#438=ORIENTED_EDGE('',*,*,#57,.F.);
#439=ORIENTED_EDGE('',*,*,#95,.T.);
#440=ORIENTED_EDGE('',*,*,#128,.T.);
#441=ORIENTED_EDGE('',*,*,#161,.T.);
#442=ORIENTED_EDGE('',*,*,#194,.F.);
#443=ORIENTED_EDGE('',*,*,#225,.T.);
#444=ORIENTED_EDGE('',*,*,#256,.F.);
#445=ORIENTED_EDGE('',*,*,#289,.T.);
#446=ORIENTED_EDGE('',*,*,#320,.T.);
#447=ORIENTED_EDGE('',*,*,#353,.T.);
#448=ORIENTED_EDGE('',*,*,#384,.F.);
#449=EDGE_LOOP('',(#437,#438,#439,#440,#441,#442,#443,#444,#445,#446,#447,#448));
#450=FACE_OUTER_BOUND('',#449,.T.);
#451=CARTESIAN_POINT('',(0.0225002301926,1.59383019130,0.141176638911));
#452=DIRECTION('',(0.0,1.0,0.0));
#453=DIRECTION('',(-1.0,0.0,0.0));
#454=AXIS2_PLACEMENT_3D('',#451,#452,#453);
#455=PLANE('',#454);
#456=ADVANCED_FACE('',(#450),#455,.F.);
#457=CLOSED_SHELL('',(#72,#105,#138,#171,#204,#235,#266,#299,#330,#363,#394,#416,#436,#456));
#458=MANIFOLD_SOLID_BREP('',#457);
#459=COLOUR_RGB('',1.0,0.0,0.0);
#460=FILL_AREA_STYLE_COLOUR('',#459);
#461=FILL_AREA_STYLE('',(#460));
#462=SURFACE_STYLE_FILL_AREA(#461);
#463=SURFACE_SIDE_STYLE('',(#462));
#464=SURFACE_STYLE_USAGE(.BOTH.,#463);
#465=PRESENTATION_STYLE_ASSIGNMENT((#464));
#466=STYLED_ITEM('',(#465),#458);
#467=ADVANCED_BREP_SHAPE_REPRESENTATION('',(#458,#23),#18);
#468=SHAPE_DEFINITION_REPRESENTATION(#30,#467);
#469=DERIVED_UNIT_ELEMENT(#12,3.0);
#470=VOLUME_UNIT((#469));
#471=NAME_ATTRIBUTE('CUBIC MILLIMETRE',#470);
#472=DERIVED_UNIT_ELEMENT(#12,2.0);
#473=AREA_UNIT((#472));
#474=NAME_ATTRIBUTE('SQUARE MILLIMETRE',#473);
#475=SHAPE_ASPECT('#475','solid #458',#30,.F.);
#476=GEOMETRIC_ITEM_SPECIFIC_USAGE('Shape for Validation Properties','',#475,#467,#458);
#477=MEASURE_REPRESENTATION_ITEM('volume measure',VOLUME_MEASURE(0.620287527811381),#470);
#478=REPRESENTATION('volume',(#477),#18);
#479=PROPERTY_DEFINITION('volume of #458','geometric validation property',#475);
#480=PROPERTY_DEFINITION_REPRESENTATION(#479,#478);
#481=MEASURE_REPRESENTATION_ITEM('surface area measure',AREA_MEASURE(28.4216321962296),#473);
#482=REPRESENTATION('surface area',(#481),#18);
#483=PROPERTY_DEFINITION('area of #458','geometric validation property',#475);
#484=PROPERTY_DEFINITION_REPRESENTATION(#483,#482);
#485=CARTESIAN_POINT('centre point',(-1.18008211266E-06,4.59383019130,0.0843385622010));
#486=REPRESENTATION('centroid',(#485),#18);
#487=PROPERTY_DEFINITION('centroid of #458','geometric validation property',#475);
#488=PROPERTY_DEFINITION_REPRESENTATION(#487,#486);
#489=CARTESIAN_POINT('bounding box corner point',(-0.699999769807,1.59383019130,-0.0));
#490=CARTESIAN_POINT('bounding box corner point',(0.700000230193,7.59383019130,0.230000000000));
#491=REPRESENTATION('bounding box',(#489,#490),#18);
#492=PROPERTY_DEFINITION('bounding box of #458','geometric validation property',#475);
#493=PROPERTY_DEFINITION_REPRESENTATION(#492,#491);
#494=PRESENTATION_LAYER_ASSIGNMENT('1','Unnamed [1]',(#458));
ENDSEC;
END-ISO-10303-21;
