ISO-10303-21;
HEADER;
FILE_DESCRIPTION(('', 'CAx-IF Rec.Pracs.---Representation and Presentation of Product Manufacturing Information (PMI)---4.0---2014-10-13'),'2;1');
FILE_NAME('C:/Program Files/Kubotek/KeyCreatorPro.2022.SP1/STEP/SG2644.STP', '2023-05-03T19:49:41',(''), (''), 'Kubotek Kosmos Version 4.0.11086.11086', 'KeyCreator Pro', '');
FILE_SCHEMA(('AP242_MANAGED_MODEL_BASED_3D_ENGINEERING_MIM_LF  { 1 0 10303 442 1 1 4 }'));
ENDSEC;
DATA;
#1=PRODUCT_DEFINITION_CONTEXT('',#4,'design');
#2=PRODUCT_CONTEXT('',#4,'mechanical');
#3=APPLICATION_PROTOCOL_DEFINITION('international standard','ap242_managed_model_based_3d_engineering',2011,#4);
#4=APPLICATION_CONTEXT('managed model based 3d engineering');
#10=DIMENSIONAL_EXPONENTS(1.0,0.0,0.0,0.0,0.0,0.0,0.0);
#11=DIMENSIONAL_EXPONENTS(0.0,0.0,0.0,0.0,0.0,0.0,0.0);
#12=(LENGTH_UNIT()NAMED_UNIT(*)SI_UNIT(.MILLI.,.METRE.));
#13=(NAMED_UNIT(*)PLANE_ANGLE_UNIT()SI_UNIT($,.RADIAN.));
#14=(NAMED_UNIT(*)SI_UNIT($,.STERADIAN.)SOLID_ANGLE_UNIT());
#15=LENGTH_MEASURE_WITH_UNIT(LENGTH_MEASURE(25.4),#12);
#16= (CONVERSION_BASED_UNIT('INCH',#15)LENGTH_UNIT()NAMED_UNIT(#10));
#17=UNCERTAINTY_MEASURE_WITH_UNIT(LENGTH_MEASURE(1.0E-006),#16,'','');
#18=(GEOMETRIC_REPRESENTATION_CONTEXT(3)GLOBAL_UNCERTAINTY_ASSIGNED_CONTEXT((#17))GLOBAL_UNIT_ASSIGNED_CONTEXT((#16,#13,#14))REPRESENTATION_CONTEXT('NONE','WORKSPACE'));
#20=CARTESIAN_POINT('',(0.00000000000000,0.00000000000000,0.00000000000000));
#21=DIRECTION('',(0.00000000000000,0.00000000000000,1.00000000000000));
#22=DIRECTION('',(1.00000000000000,0.00000000000000,0.00000000000000));
#23=AXIS2_PLACEMENT_3D('',#20,#21,#22);
#24=SHAPE_REPRESENTATION('',(#23),#18);
#25=PRODUCT('','','',(#2));
#26=PRODUCT_DEFINITION_FORMATION_WITH_SPECIFIED_SOURCE('','',#25,.NOT_KNOWN.);
#27=PRODUCT_CATEGORY('part','');
#28=PRODUCT_RELATED_PRODUCT_CATEGORY('detail','',(#25));
#29=PRODUCT_CATEGORY_RELATIONSHIP('','',#27,#28);
#30=PRODUCT_DEFINITION('','',#26,#1);
#31=PRODUCT_DEFINITION_SHAPE('NONE','NONE',#30);
#32=SHAPE_DEFINITION_REPRESENTATION(#31,#24);
#33=CARTESIAN_POINT('',(2.66500000000000,0.00000000000000,-0.0830000000000000));
#34=VERTEX_POINT('',#33);
#35=CARTESIAN_POINT('',(2.66500000000000,0.00000000000000,-1.16850000000000));
#36=VERTEX_POINT('',#35);
#37=CARTESIAN_POINT('',(2.66500000000000,0.00000000000000,-4.97024173225382));
#38=DIRECTION('',(0.00000000000000,0.00000000000000,-1.00000000000000));
#39=VECTOR('',#38,1.00000000000000);
#40=LINE('',#37,#39);
#41=EDGE_CURVE('',#34,#36,#40,.T.);
#42=ORIENTED_EDGE('',*,*,#41,.T.);
#43=CARTESIAN_POINT('',(2.60200000000000,0.00000000000000,-1.16850000000000));
#44=VERTEX_POINT('',#43);
#45=CARTESIAN_POINT('',(2.63350000000000,0.00000000000000,-1.16850000000000));
#46=DIRECTION('',(0.00000000000000,1.00000000000000,0.00000000000000));
#47=DIRECTION('',(0.00000000000000,0.00000000000000,1.00000000000000));
#48=AXIS2_PLACEMENT_3D('',#45,#46,#47);
#49=CIRCLE('',#48,0.0315000000000000);
#50=EDGE_CURVE('',#36,#44,#49,.T.);
#51=ORIENTED_EDGE('',*,*,#50,.T.);
#52=CARTESIAN_POINT('',(2.60200000000000,0.00000000000000,-0.0830000000000000));
#53=VERTEX_POINT('',#52);
#54=CARTESIAN_POINT('',(2.60200000000000,0.00000000000000,-4.97024173225382));
#55=DIRECTION('',(0.00000000000000,-0.00000000000000,1.00000000000000));
#56=VECTOR('',#55,1.00000000000000);
#57=LINE('',#54,#56);
#58=EDGE_CURVE('',#44,#53,#57,.T.);
#59=ORIENTED_EDGE('',*,*,#58,.T.);
#60=CARTESIAN_POINT('',(2.58200000000000,0.00000000000000,-0.0630000000000001));
#61=VERTEX_POINT('',#60);
#62=CARTESIAN_POINT('',(2.58200000000000,0.00000000000000,-0.0830000000000000));
#63=DIRECTION('',(0.00000000000000,1.00000000000000,0.00000000000000));
#64=DIRECTION('',(-1.00000000000000,0.00000000000000,0.00000000000000));
#65=AXIS2_PLACEMENT_3D('',#62,#63,#64);
#66=CIRCLE('',#65,0.0200000000000000);
#67=EDGE_CURVE('',#61,#53,#66,.T.);
#68=ORIENTED_EDGE('',*,*,#67,.F.);
#69=CARTESIAN_POINT('',(-2.58200000000000,0.00000000000000,-0.0629999999999999));
#70=VERTEX_POINT('',#69);
#71=CARTESIAN_POINT('',(-33.3088731072025,0.00000000000000,-0.0629999999999997));
#72=DIRECTION('',(-1.00000000000000,0.00000000000000,0.00000000000000));
#73=VECTOR('',#72,1.00000000000000);
#74=LINE('',#71,#73);
#75=EDGE_CURVE('',#61,#70,#74,.T.);
#76=ORIENTED_EDGE('',*,*,#75,.T.);
#77=CARTESIAN_POINT('',(-2.60200000000000,0.00000000000000,-0.0830000000000000));
#78=VERTEX_POINT('',#77);
#79=CARTESIAN_POINT('',(-2.58200000000000,0.00000000000000,-0.0830000000000000));
#80=DIRECTION('',(0.00000000000000,1.00000000000000,0.00000000000000));
#81=DIRECTION('',(0.707106781186549,0.00000000000000,-0.707106781186546));
#82=AXIS2_PLACEMENT_3D('',#79,#80,#81);
#83=CIRCLE('',#82,0.0200000000000000);
#84=EDGE_CURVE('',#78,#70,#83,.T.);
#85=ORIENTED_EDGE('',*,*,#84,.F.);
#86=CARTESIAN_POINT('',(-2.60200000000000,0.00000000000000,-1.16850000000000));
#87=VERTEX_POINT('',#86);
#88=CARTESIAN_POINT('',(-2.60200000000000,0.00000000000000,-4.97024173225382));
#89=DIRECTION('',(0.00000000000000,0.00000000000000,-1.00000000000000));
#90=VECTOR('',#89,1.00000000000000);
#91=LINE('',#88,#90);
#92=EDGE_CURVE('',#78,#87,#91,.T.);
#93=ORIENTED_EDGE('',*,*,#92,.T.);
#94=CARTESIAN_POINT('',(-2.66500000000000,0.00000000000000,-1.16850000000000));
#95=VERTEX_POINT('',#94);
#96=CARTESIAN_POINT('',(-2.63350000000000,0.00000000000000,-1.16850000000000));
#97=DIRECTION('',(0.00000000000000,1.00000000000000,0.00000000000000));
#98=DIRECTION('',(0.00000000000000,0.00000000000000,1.00000000000000));
#99=AXIS2_PLACEMENT_3D('',#96,#97,#98);
#100=CIRCLE('',#99,0.0315000000000000);
#101=EDGE_CURVE('',#87,#95,#100,.T.);
#102=ORIENTED_EDGE('',*,*,#101,.T.);
#103=CARTESIAN_POINT('',(-2.66500000000000,0.00000000000000,-0.0830000000000000));
#104=VERTEX_POINT('',#103);
#105=CARTESIAN_POINT('',(-2.66500000000000,0.00000000000000,-4.97024173225382));
#106=DIRECTION('',(0.00000000000000,-0.00000000000000,1.00000000000000));
#107=VECTOR('',#106,1.00000000000000);
#108=LINE('',#105,#107);
#109=EDGE_CURVE('',#95,#104,#108,.T.);
#110=ORIENTED_EDGE('',*,*,#109,.T.);
#111=CARTESIAN_POINT('',(-2.58200000000000,0.00000000000000,0.00000000000000));
#112=VERTEX_POINT('',#111);
#113=CARTESIAN_POINT('',(-2.58200000000000,0.00000000000000,-0.0830000000000000));
#114=DIRECTION('',(0.00000000000000,1.00000000000000,0.00000000000000));
#115=DIRECTION('',(0.707106781186548,0.00000000000000,-0.707106781186547));
#116=AXIS2_PLACEMENT_3D('',#113,#114,#115);
#117=CIRCLE('',#116,0.0830000000000000);
#118=EDGE_CURVE('',#104,#112,#117,.T.);
#119=ORIENTED_EDGE('',*,*,#118,.T.);
#120=CARTESIAN_POINT('',(2.58200000000000,0.00000000000000,0.00000000000000));
#121=VERTEX_POINT('',#120);
#122=CARTESIAN_POINT('',(-33.3088731072025,0.00000000000000,0.00000000000000));
#123=DIRECTION('',(1.00000000000000,0.00000000000000,0.00000000000000));
#124=VECTOR('',#123,1.00000000000000);
#125=LINE('',#122,#124);
#126=EDGE_CURVE('',#112,#121,#125,.T.);
#127=ORIENTED_EDGE('',*,*,#126,.T.);
#128=CARTESIAN_POINT('',(2.58200000000000,0.00000000000000,-0.0830000000000000));
#129=DIRECTION('',(0.00000000000000,1.00000000000000,0.00000000000000));
#130=DIRECTION('',(-1.00000000000000,0.00000000000000,0.00000000000000));
#131=AXIS2_PLACEMENT_3D('',#128,#129,#130);
#132=CIRCLE('',#131,0.0830000000000000);
#133=EDGE_CURVE('',#121,#34,#132,.T.);
#134=ORIENTED_EDGE('',*,*,#133,.T.);
#135=EDGE_LOOP('',(#42,#51,#59,#68,#76,#85,#93,#102,#110,#119,#127,#134));
#136=FACE_OUTER_BOUND('',#135,.T.);
#137=CARTESIAN_POINT('',(-66.6177462144051,0.00000000000000,-9.31473346450763));
#138=DIRECTION('',(0.00000000000000,1.00000000000000,0.00000000000000));
#139=DIRECTION('',(0.00000000000000,0.00000000000000,1.00000000000000));
#140=AXIS2_PLACEMENT_3D('',#137,#138,#139);
#141=PLANE('',#140);
#142=ADVANCED_FACE('',(#136),#141,.T.);
#143=ORIENTED_EDGE('',*,*,#92,.F.);
#144=CARTESIAN_POINT('',(-2.60200000000000,-5.99999993333333,-0.0830000000000000));
#145=VERTEX_POINT('',#144);
#146=CARTESIAN_POINT('',(-2.60200000000000,-5.99999993333333,-0.0830000000000000));
#147=DIRECTION('',(0.00000000000000,1.00000000000000,0.00000000000000));
#148=VECTOR('',#147,1.00000000000000);
#149=LINE('',#146,#148);
#150=EDGE_CURVE('',#145,#78,#149,.T.);
#151=ORIENTED_EDGE('',*,*,#150,.F.);
#152=CARTESIAN_POINT('',(-2.60200000000000,-5.99999993333333,-1.16850000000000));
#153=VERTEX_POINT('',#152);
#154=CARTESIAN_POINT('',(-2.60200000000000,-5.99999993333333,-0.0830000000000000));
#155=DIRECTION('',(0.00000000000000,-1.02277570209595E-16,-1.00000000000000));
#156=VECTOR('',#155,1.00000000000000);
#157=LINE('',#154,#156);
#158=EDGE_CURVE('',#145,#153,#157,.T.);
#159=ORIENTED_EDGE('',*,*,#158,.T.);
#160=CARTESIAN_POINT('',(-2.60200000000000,-5.99999993333333,-1.16850000000000));
#161=DIRECTION('',(0.00000000000000,1.00000000000000,0.00000000000000));
#162=VECTOR('',#161,1.00000000000000);
#163=LINE('',#160,#162);
#164=EDGE_CURVE('',#153,#87,#163,.T.);
#165=ORIENTED_EDGE('',*,*,#164,.T.);
#166=EDGE_LOOP('',(#143,#151,#159,#165));
#167=FACE_OUTER_BOUND('',#166,.T.);
#168=CARTESIAN_POINT('',(-2.60200000000000,-5.99999993333333,-0.625750000000000));
#169=DIRECTION('',(1.00000000000000,0.00000000000000,0.00000000000000));
#170=DIRECTION('',(0.00000000000000,-1.02277570209595E-16,-1.00000000000000));
#171=AXIS2_PLACEMENT_3D('',#168,#169,#170);
#172=PLANE('',#171);
#173=ADVANCED_FACE('',(#167),#172,.T.);
#174=COLOUR_RGB('',1.00000000000000,0.00000000000000,0.00000000000000);
#175=FILL_AREA_STYLE_COLOUR('',#174);
#176=FILL_AREA_STYLE('',(#175));
#177=SURFACE_STYLE_FILL_AREA(#176);
#178=SURFACE_SIDE_STYLE('',(#177));
#179=SURFACE_STYLE_USAGE(.BOTH.,#178);
#180=PRESENTATION_STYLE_ASSIGNMENT((#179));
#181=STYLED_ITEM('',(#180),#173);
#182=ORIENTED_EDGE('',*,*,#84,.T.);
#183=CARTESIAN_POINT('',(-2.58200000000000,-5.99999993333333,-0.0629999999999999));
#184=VERTEX_POINT('',#183);
#185=CARTESIAN_POINT('',(-2.58200000000000,-5.99999993333333,-0.0629999999999999));
#186=DIRECTION('',(0.00000000000000,1.00000000000000,0.00000000000000));
#187=VECTOR('',#186,1.00000000000000);
#188=LINE('',#185,#187);
#189=EDGE_CURVE('',#184,#70,#188,.T.);
#190=ORIENTED_EDGE('',*,*,#189,.F.);
#191=CARTESIAN_POINT('',(-2.58200000000000,-5.99999993333333,-0.0830000000000000));
#192=DIRECTION('',(3.06161699786838E-17,-1.00000000000000,3.06161699786840E-17));
#193=DIRECTION('',(0.707106781186549,0.00000000000000,-0.707106781186546));
#194=AXIS2_PLACEMENT_3D('',#191,#192,#193);
#195=CIRCLE('',#194,0.0200000000000000);
#196=EDGE_CURVE('',#184,#145,#195,.T.);
#197=ORIENTED_EDGE('',*,*,#196,.T.);
#198=ORIENTED_EDGE('',*,*,#150,.T.);
#199=EDGE_LOOP('',(#182,#190,#197,#198));
#200=FACE_OUTER_BOUND('',#199,.T.);
#201=CARTESIAN_POINT('',(-2.58200000000000,-5.99999993333333,-0.0830000000000000));
#202=DIRECTION('',(0.00000000000000,1.00000000000000,0.00000000000000));
#203=DIRECTION('',(0.707106781186549,0.00000000000000,-0.707106781186546));
#204=AXIS2_PLACEMENT_3D('',#201,#202,#203);
#205=CYLINDRICAL_SURFACE('',#204,0.0200000000000000);
#206=ADVANCED_FACE('',(#200),#205,.F.);
#207=STYLED_ITEM('',(#180),#206);
#208=ORIENTED_EDGE('',*,*,#75,.F.);
#209=CARTESIAN_POINT('',(2.58200000000000,-5.99999993333333,-0.0630000000000001));
#210=VERTEX_POINT('',#209);
#211=CARTESIAN_POINT('',(2.58200000000000,-5.99999993333333,-0.0630000000000001));
#212=DIRECTION('',(0.00000000000000,1.00000000000000,0.00000000000000));
#213=VECTOR('',#212,1.00000000000000);
#214=LINE('',#211,#213);
#215=EDGE_CURVE('',#210,#61,#214,.T.);
#216=ORIENTED_EDGE('',*,*,#215,.F.);
#217=CARTESIAN_POINT('',(2.58200000000000,-5.99999993333333,-0.0630000000000001));
#218=DIRECTION('',(-1.00000000000000,0.00000000000000,0.00000000000000));
#219=VECTOR('',#218,1.00000000000000);
#220=LINE('',#217,#219);
#221=EDGE_CURVE('',#210,#184,#220,.T.);
#222=ORIENTED_EDGE('',*,*,#221,.T.);
#223=ORIENTED_EDGE('',*,*,#189,.T.);
#224=EDGE_LOOP('',(#208,#216,#222,#223));
#225=FACE_OUTER_BOUND('',#224,.T.);
#226=CARTESIAN_POINT('',(0.00000000000000,-5.99999993333333,-0.0630000000000001));
#227=DIRECTION('',(0.00000000000000,0.00000000000000,-1.00000000000000));
#228=DIRECTION('',(-1.00000000000000,0.00000000000000,0.00000000000000));
#229=AXIS2_PLACEMENT_3D('',#226,#227,#228);
#230=PLANE('',#229);
#231=ADVANCED_FACE('',(#225),#230,.T.);
#232=STYLED_ITEM('',(#180),#231);
#233=ORIENTED_EDGE('',*,*,#67,.T.);
#234=CARTESIAN_POINT('',(2.60200000000000,-5.99999993333333,-0.0830000000000000));
#235=VERTEX_POINT('',#234);
#236=CARTESIAN_POINT('',(2.60200000000000,-5.99999993333333,-0.0830000000000000));
#237=DIRECTION('',(0.00000000000000,1.00000000000000,0.00000000000000));
#238=VECTOR('',#237,1.00000000000000);
#239=LINE('',#236,#238);
#240=EDGE_CURVE('',#235,#53,#239,.T.);
#241=ORIENTED_EDGE('',*,*,#240,.F.);
#242=CARTESIAN_POINT('',(2.58200000000000,-5.99999993333333,-0.0830000000000000));
#243=DIRECTION('',(0.00000000000000,1.00000000000000,0.00000000000000));
#244=DIRECTION('',(-1.00000000000000,0.00000000000000,0.00000000000000));
#245=AXIS2_PLACEMENT_3D('',#242,#243,#244);
#246=CIRCLE('',#245,0.0200000000000000);
#247=EDGE_CURVE('',#210,#235,#246,.T.);
#248=ORIENTED_EDGE('',*,*,#247,.F.);
#249=ORIENTED_EDGE('',*,*,#215,.T.);
#250=EDGE_LOOP('',(#233,#241,#248,#249));
#251=FACE_OUTER_BOUND('',#250,.T.);
#252=CARTESIAN_POINT('',(2.58200000000000,-5.99999993333333,-0.0830000000000000));
#253=DIRECTION('',(0.00000000000000,1.00000000000000,0.00000000000000));
#254=DIRECTION('',(-1.00000000000000,0.00000000000000,0.00000000000000));
#255=AXIS2_PLACEMENT_3D('',#252,#253,#254);
#256=CYLINDRICAL_SURFACE('',#255,0.0200000000000000);
#257=ADVANCED_FACE('',(#251),#256,.F.);
#258=STYLED_ITEM('',(#180),#257);
#259=ORIENTED_EDGE('',*,*,#58,.F.);
#260=CARTESIAN_POINT('',(2.60200000000000,-5.99999993333333,-1.16850000000000));
#261=VERTEX_POINT('',#260);
#262=CARTESIAN_POINT('',(2.60200000000000,-5.99999993333333,-1.16850000000000));
#263=DIRECTION('',(0.00000000000000,1.00000000000000,0.00000000000000));
#264=VECTOR('',#263,1.00000000000000);
#265=LINE('',#262,#264);
#266=EDGE_CURVE('',#261,#44,#265,.T.);
#267=ORIENTED_EDGE('',*,*,#266,.F.);
#268=CARTESIAN_POINT('',(2.60200000000000,-5.99999993333333,-1.16850000000000));
#269=DIRECTION('',(0.00000000000000,1.02277570209595E-16,1.00000000000000));
#270=VECTOR('',#269,1.00000000000000);
#271=LINE('',#268,#270);
#272=EDGE_CURVE('',#261,#235,#271,.T.);
#273=ORIENTED_EDGE('',*,*,#272,.T.);
#274=ORIENTED_EDGE('',*,*,#240,.T.);
#275=EDGE_LOOP('',(#259,#267,#273,#274));
#276=FACE_OUTER_BOUND('',#275,.T.);
#277=CARTESIAN_POINT('',(2.60200000000000,-5.99999993333333,-0.625750000000000));
#278=DIRECTION('',(-1.00000000000000,0.00000000000000,0.00000000000000));
#279=DIRECTION('',(0.00000000000000,1.02277570209595E-16,1.00000000000000));
#280=AXIS2_PLACEMENT_3D('',#277,#278,#279);
#281=PLANE('',#280);
#282=ADVANCED_FACE('',(#276),#281,.T.);
#283=STYLED_ITEM('',(#180),#282);
#284=ORIENTED_EDGE('',*,*,#50,.F.);
#285=CARTESIAN_POINT('',(2.66500000000000,-5.99999993333333,-1.16850000000000));
#286=VERTEX_POINT('',#285);
#287=CARTESIAN_POINT('',(2.66500000000000,-5.99999993333333,-1.16850000000000));
#288=DIRECTION('',(0.00000000000000,1.00000000000000,0.00000000000000));
#289=VECTOR('',#288,1.00000000000000);
#290=LINE('',#287,#289);
#291=EDGE_CURVE('',#286,#36,#290,.T.);
#292=ORIENTED_EDGE('',*,*,#291,.F.);
#293=CARTESIAN_POINT('',(2.63350000000000,-5.99999993333333,-1.16850000000000));
#294=DIRECTION('',(0.00000000000000,-1.00000000000000,6.12323399573676E-17));
#295=DIRECTION('',(1.00000000000000,0.00000000000000,0.00000000000000));
#296=AXIS2_PLACEMENT_3D('',#293,#294,#295);
#297=CIRCLE('',#296,0.0315000000000000);
#298=EDGE_CURVE('',#261,#286,#297,.T.);
#299=ORIENTED_EDGE('',*,*,#298,.F.);
#300=ORIENTED_EDGE('',*,*,#266,.T.);
#301=EDGE_LOOP('',(#284,#292,#299,#300));
#302=FACE_OUTER_BOUND('',#301,.T.);
#303=CARTESIAN_POINT('',(2.63350000000000,-5.99999993333333,-1.16850000000000));
#304=DIRECTION('',(0.00000000000000,1.00000000000000,0.00000000000000));
#305=DIRECTION('',(0.00000000000000,0.00000000000000,1.00000000000000));
#306=AXIS2_PLACEMENT_3D('',#303,#304,#305);
#307=CYLINDRICAL_SURFACE('',#306,0.0315000000000000);
#308=ADVANCED_FACE('',(#302),#307,.T.);
#309=STYLED_ITEM('',(#180),#308);
#310=ORIENTED_EDGE('',*,*,#109,.F.);
#311=CARTESIAN_POINT('',(-2.66500000000000,-5.99999993333333,-1.16850000000000));
#312=VERTEX_POINT('',#311);
#313=CARTESIAN_POINT('',(-2.66500000000000,-5.99999993333333,-1.16850000000000));
#314=DIRECTION('',(0.00000000000000,1.00000000000000,0.00000000000000));
#315=VECTOR('',#314,1.00000000000000);
#316=LINE('',#313,#315);
#317=EDGE_CURVE('',#312,#95,#316,.T.);
#318=ORIENTED_EDGE('',*,*,#317,.F.);
#319=CARTESIAN_POINT('',(-2.66500000000000,-5.99999993333333,-0.0830000000000000));
#320=VERTEX_POINT('',#319);
#321=CARTESIAN_POINT('',(-2.66500000000000,-5.99999993333333,-0.0830000000000000));
#322=DIRECTION('',(0.00000000000000,-1.02277570209595E-16,-1.00000000000000));
#323=VECTOR('',#322,1.00000000000000);
#324=LINE('',#321,#323);
#325=EDGE_CURVE('',#320,#312,#324,.T.);
#326=ORIENTED_EDGE('',*,*,#325,.F.);
#327=CARTESIAN_POINT('',(-2.66500000000000,-5.99999993333333,-0.0830000000000000));
#328=DIRECTION('',(0.00000000000000,1.00000000000000,0.00000000000000));
#329=VECTOR('',#328,1.00000000000000);
#330=LINE('',#327,#329);
#331=EDGE_CURVE('',#320,#104,#330,.T.);
#332=ORIENTED_EDGE('',*,*,#331,.T.);
#333=EDGE_LOOP('',(#310,#318,#326,#332));
#334=FACE_OUTER_BOUND('',#333,.T.);
#335=CARTESIAN_POINT('',(-2.66500000000000,-5.99999993333333,-0.625750000000000));
#336=DIRECTION('',(-1.00000000000000,0.00000000000000,0.00000000000000));
#337=DIRECTION('',(0.00000000000000,1.02277570209595E-16,1.00000000000000));
#338=AXIS2_PLACEMENT_3D('',#335,#336,#337);
#339=PLANE('',#338);
#340=ADVANCED_FACE('',(#334),#339,.T.);
#341=STYLED_ITEM('',(#180),#340);
#342=ORIENTED_EDGE('',*,*,#41,.F.);
#343=CARTESIAN_POINT('',(2.66500000000000,-5.99999993333333,-0.0830000000000000));
#344=VERTEX_POINT('',#343);
#345=CARTESIAN_POINT('',(2.66500000000000,-5.99999993333333,-0.0830000000000000));
#346=DIRECTION('',(0.00000000000000,1.00000000000000,0.00000000000000));
#347=VECTOR('',#346,1.00000000000000);
#348=LINE('',#345,#347);
#349=EDGE_CURVE('',#344,#34,#348,.T.);
#350=ORIENTED_EDGE('',*,*,#349,.F.);
#351=CARTESIAN_POINT('',(2.66500000000000,-5.99999993333333,-1.16850000000000));
#352=DIRECTION('',(0.00000000000000,1.02277570209595E-16,1.00000000000000));
#353=VECTOR('',#352,1.00000000000000);
#354=LINE('',#351,#353);
#355=EDGE_CURVE('',#286,#344,#354,.T.);
#356=ORIENTED_EDGE('',*,*,#355,.F.);
#357=ORIENTED_EDGE('',*,*,#291,.T.);
#358=EDGE_LOOP('',(#342,#350,#356,#357));
#359=FACE_OUTER_BOUND('',#358,.T.);
#360=CARTESIAN_POINT('',(2.66500000000000,-5.99999993333333,-0.625750000000000));
#361=DIRECTION('',(1.00000000000000,0.00000000000000,0.00000000000000));
#362=DIRECTION('',(-0.00000000000000,-1.02277570209595E-16,-1.00000000000000));
#363=AXIS2_PLACEMENT_3D('',#360,#361,#362);
#364=PLANE('',#363);
#365=ADVANCED_FACE('',(#359),#364,.T.);
#366=STYLED_ITEM('',(#180),#365);
#367=ORIENTED_EDGE('',*,*,#101,.F.);
#368=ORIENTED_EDGE('',*,*,#164,.F.);
#369=CARTESIAN_POINT('',(-2.63350000000000,-5.99999993333333,-1.16850000000000));
#370=DIRECTION('',(0.00000000000000,-1.00000000000000,6.12323399573676E-17));
#371=DIRECTION('',(1.00000000000000,0.00000000000000,0.00000000000000));
#372=AXIS2_PLACEMENT_3D('',#369,#370,#371);
#373=CIRCLE('',#372,0.0315000000000000);
#374=EDGE_CURVE('',#312,#153,#373,.T.);
#375=ORIENTED_EDGE('',*,*,#374,.F.);
#376=ORIENTED_EDGE('',*,*,#317,.T.);
#377=EDGE_LOOP('',(#367,#368,#375,#376));
#378=FACE_OUTER_BOUND('',#377,.T.);
#379=CARTESIAN_POINT('',(-2.63350000000000,-5.99999993333333,-1.16850000000000));
#380=DIRECTION('',(0.00000000000000,1.00000000000000,0.00000000000000));
#381=DIRECTION('',(0.00000000000000,0.00000000000000,1.00000000000000));
#382=AXIS2_PLACEMENT_3D('',#379,#380,#381);
#383=CYLINDRICAL_SURFACE('',#382,0.0315000000000000);
#384=ADVANCED_FACE('',(#378),#383,.T.);
#385=STYLED_ITEM('',(#180),#384);
#386=ORIENTED_EDGE('',*,*,#118,.F.);
#387=ORIENTED_EDGE('',*,*,#331,.F.);
#388=CARTESIAN_POINT('',(-2.58200000000000,-5.99999993333333,0.00000000000000));
#389=VERTEX_POINT('',#388);
#390=CARTESIAN_POINT('',(-2.58200000000000,-5.99999993333333,-0.0830000000000000));
#391=DIRECTION('',(3.06161699786838E-17,-1.00000000000000,3.06161699786839E-17));
#392=DIRECTION('',(0.707106781186548,0.00000000000000,-0.707106781186547));
#393=AXIS2_PLACEMENT_3D('',#390,#391,#392);
#394=CIRCLE('',#393,0.0830000000000000);
#395=EDGE_CURVE('',#389,#320,#394,.T.);
#396=ORIENTED_EDGE('',*,*,#395,.F.);
#397=CARTESIAN_POINT('',(-2.58200000000000,-5.99999993333333,0.00000000000000));
#398=DIRECTION('',(0.00000000000000,1.00000000000000,0.00000000000000));
#399=VECTOR('',#398,1.00000000000000);
#400=LINE('',#397,#399);
#401=EDGE_CURVE('',#389,#112,#400,.T.);
#402=ORIENTED_EDGE('',*,*,#401,.T.);
#403=EDGE_LOOP('',(#386,#387,#396,#402));
#404=FACE_OUTER_BOUND('',#403,.T.);
#405=CARTESIAN_POINT('',(-2.58200000000000,-5.99999993333333,-0.0830000000000000));
#406=DIRECTION('',(0.00000000000000,1.00000000000000,0.00000000000000));
#407=DIRECTION('',(0.707106781186548,0.00000000000000,-0.707106781186547));
#408=AXIS2_PLACEMENT_3D('',#405,#406,#407);
#409=CYLINDRICAL_SURFACE('',#408,0.0830000000000000);
#410=ADVANCED_FACE('',(#404),#409,.T.);
#411=STYLED_ITEM('',(#180),#410);
#412=ORIENTED_EDGE('',*,*,#133,.F.);
#413=CARTESIAN_POINT('',(2.58200000000000,-5.99999993333333,0.00000000000000));
#414=VERTEX_POINT('',#413);
#415=CARTESIAN_POINT('',(2.58200000000000,-5.99999993333333,0.00000000000000));
#416=DIRECTION('',(0.00000000000000,1.00000000000000,0.00000000000000));
#417=VECTOR('',#416,1.00000000000000);
#418=LINE('',#415,#417);
#419=EDGE_CURVE('',#414,#121,#418,.T.);
#420=ORIENTED_EDGE('',*,*,#419,.F.);
#421=CARTESIAN_POINT('',(2.58200000000000,-5.99999993333333,-0.0830000000000000));
#422=DIRECTION('',(0.00000000000000,1.00000000000000,0.00000000000000));
#423=DIRECTION('',(-1.00000000000000,0.00000000000000,0.00000000000000));
#424=AXIS2_PLACEMENT_3D('',#421,#422,#423);
#425=CIRCLE('',#424,0.0830000000000000);
#426=EDGE_CURVE('',#414,#344,#425,.T.);
#427=ORIENTED_EDGE('',*,*,#426,.T.);
#428=ORIENTED_EDGE('',*,*,#349,.T.);
#429=EDGE_LOOP('',(#412,#420,#427,#428));
#430=FACE_OUTER_BOUND('',#429,.T.);
#431=CARTESIAN_POINT('',(2.58200000000000,-5.99999993333333,-0.0830000000000000));
#432=DIRECTION('',(0.00000000000000,1.00000000000000,0.00000000000000));
#433=DIRECTION('',(-1.00000000000000,0.00000000000000,0.00000000000000));
#434=AXIS2_PLACEMENT_3D('',#431,#432,#433);
#435=CYLINDRICAL_SURFACE('',#434,0.0830000000000000);
#436=ADVANCED_FACE('',(#430),#435,.T.);
#437=STYLED_ITEM('',(#180),#436);
#438=ORIENTED_EDGE('',*,*,#126,.F.);
#439=ORIENTED_EDGE('',*,*,#401,.F.);
#440=CARTESIAN_POINT('',(2.58200000000000,-5.99999993333333,0.00000000000000));
#441=DIRECTION('',(-1.00000000000000,0.00000000000000,0.00000000000000));
#442=VECTOR('',#441,1.00000000000000);
#443=LINE('',#440,#442);
#444=EDGE_CURVE('',#414,#389,#443,.T.);
#445=ORIENTED_EDGE('',*,*,#444,.F.);
#446=ORIENTED_EDGE('',*,*,#419,.T.);
#447=EDGE_LOOP('',(#438,#439,#445,#446));
#448=FACE_OUTER_BOUND('',#447,.T.);
#449=CARTESIAN_POINT('',(0.00000000000000,-5.99999993333333,0.00000000000000));
#450=DIRECTION('',(0.00000000000000,0.00000000000000,1.00000000000000));
#451=DIRECTION('',(1.00000000000000,0.00000000000000,0.00000000000000));
#452=AXIS2_PLACEMENT_3D('',#449,#450,#451);
#453=PLANE('',#452);
#454=ADVANCED_FACE('',(#448),#453,.T.);
#455=STYLED_ITEM('',(#180),#454);
#456=ORIENTED_EDGE('',*,*,#426,.F.);
#457=ORIENTED_EDGE('',*,*,#444,.T.);
#458=ORIENTED_EDGE('',*,*,#395,.T.);
#459=ORIENTED_EDGE('',*,*,#325,.T.);
#460=ORIENTED_EDGE('',*,*,#374,.T.);
#461=ORIENTED_EDGE('',*,*,#158,.F.);
#462=ORIENTED_EDGE('',*,*,#196,.F.);
#463=ORIENTED_EDGE('',*,*,#221,.F.);
#464=ORIENTED_EDGE('',*,*,#247,.T.);
#465=ORIENTED_EDGE('',*,*,#272,.F.);
#466=ORIENTED_EDGE('',*,*,#298,.T.);
#467=ORIENTED_EDGE('',*,*,#355,.T.);
#468=EDGE_LOOP('',(#456,#457,#458,#459,#460,#461,#462,#463,#464,#465,#466,#467));
#469=FACE_OUTER_BOUND('',#468,.T.);
#470=CARTESIAN_POINT('',(0.969153700000000,-5.99999993333333,0.00000000000000));
#471=DIRECTION('',(0.00000000000000,-1.00000000000000,0.00000000000000));
#472=DIRECTION('',(1.00000000000000,0.00000000000000,0.00000000000000));
#473=AXIS2_PLACEMENT_3D('',#470,#471,#472);
#474=PLANE('',#473);
#475=ADVANCED_FACE('',(#469),#474,.T.);
#476=STYLED_ITEM('',(#180),#475);
#477=CLOSED_SHELL('',(#142,#173,#206,#231,#257,#282,#308,#340,#365,#384,#410,#436,#454,#475));
#478=MANIFOLD_SOLID_BREP('',#477);
#479=STYLED_ITEM('',(#180),#478);
#480=ADVANCED_BREP_SHAPE_REPRESENTATION('',(#478,#23),#18);
#481=PRODUCT('','','',(#2));
#482=PRODUCT_DEFINITION_FORMATION_WITH_SPECIFIED_SOURCE('','',#481,.NOT_KNOWN.);
#483=PRODUCT_CATEGORY('part','');
#484=PRODUCT_RELATED_PRODUCT_CATEGORY('detail','',(#481));
#485=PRODUCT_CATEGORY_RELATIONSHIP('','',#483,#484);
#486=PRODUCT_DEFINITION('','',#482,#1);
#487=PRODUCT_DEFINITION_SHAPE('NONE','NONE',#486);
#488=SHAPE_DEFINITION_REPRESENTATION(#487,#480);
#489=PRESENTATION_LAYER_ASSIGNMENT('1','Unnamed [1]',(#478));
ENDSEC;
END-ISO-10303-21;
