ISO-10303-21;
HEADER;
FILE_DESCRIPTION(('', 'CAx-IF Rec.Pracs.---Representation and Presentation of Product Manufacturing Information (PMI)---4.0---2014-10-13'),'2;1');
FILE_NAME('C:/Program Files/Kubotek/KeyCreatorPro.2022.SP1/STEP/SG2642.STP', '2023-03-01T20:12:13',(''), (''), 'Kubotek Kosmos Version 4.0.11086.11086', 'KeyCreator Pro', '');
FILE_SCHEMA(('AP242_MANAGED_MODEL_BASED_3D_ENGINEERING_MIM_LF  { 1 0 10303 442 1 1 4 }'));
ENDSEC;
DATA;
#1=PRODUCT_DEFINITION_CONTEXT('',#4,'design');
#2=PRODUCT_CONTEXT('',#4,'mechanical');
#3=APPLICATION_PROTOCOL_DEFINITION('international standard','ap242_managed_model_based_3d_engineering',2011,#4);
#4=APPLICATION_CONTEXT('managed model based 3d engineering');
#10=DIMENSIONAL_EXPONENTS(1.0,0.0,0.0,0.0,0.0,0.0,0.0);
#11=DIMENSIONAL_EXPONENTS(0.0,0.0,0.0,0.0,0.0,0.0,0.0);
#12=(LENGTH_UNIT()NAMED_UNIT(*)SI_UNIT(.MILLI.,.METRE.));
#13=(NAMED_UNIT(*)PLANE_ANGLE_UNIT()SI_UNIT($,.RADIAN.));
#14=(NAMED_UNIT(*)SI_UNIT($,.STERADIAN.)SOLID_ANGLE_UNIT());
#15=LENGTH_MEASURE_WITH_UNIT(LENGTH_MEASURE(25.4),#12);
#16= (CONVERSION_BASED_UNIT('INCH',#15)LENGTH_UNIT()NAMED_UNIT(#10));
#17=UNCERTAINTY_MEASURE_WITH_UNIT(LENGTH_MEASURE(1.0E-006),#16,'','');
#18=(GEOMETRIC_REPRESENTATION_CONTEXT(3)GLOBAL_UNCERTAINTY_ASSIGNED_CONTEXT((#17))GLOBAL_UNIT_ASSIGNED_CONTEXT((#16,#13,#14))REPRESENTATION_CONTEXT('NONE','WORKSPACE'));
#20=CARTESIAN_POINT('',(0.00000000000000,0.00000000000000,0.00000000000000));
#21=DIRECTION('',(0.00000000000000,0.00000000000000,1.00000000000000));
#22=DIRECTION('',(1.00000000000000,0.00000000000000,0.00000000000000));
#23=AXIS2_PLACEMENT_3D('',#20,#21,#22);
#24=SHAPE_REPRESENTATION('',(#23),#18);
#25=PRODUCT('','','',(#2));
#26=PRODUCT_DEFINITION_FORMATION_WITH_SPECIFIED_SOURCE('','',#25,.NOT_KNOWN.);
#27=PRODUCT_CATEGORY('part','');
#28=PRODUCT_RELATED_PRODUCT_CATEGORY('detail','',(#25));
#29=PRODUCT_CATEGORY_RELATIONSHIP('','',#27,#28);
#30=PRODUCT_DEFINITION('','',#26,#1);
#31=PRODUCT_DEFINITION_SHAPE('NONE','NONE',#30);
#32=SHAPE_DEFINITION_REPRESENTATION(#31,#24);
#33=CARTESIAN_POINT('',(0.677500000000000,6.46750000000000,-0.557500000000000));
#34=VERTEX_POINT('',#33);
#35=CARTESIAN_POINT('',(0.677500000000000,6.46750000000000,-0.467500000000000));
#36=VERTEX_POINT('',#35);
#37=CARTESIAN_POINT('',(0.677500000000000,6.46750000000000,-0.512500000000000));
#38=DIRECTION('',(0.00000000000000,-1.00000000000000,6.12323399573676E-17));
#39=DIRECTION('',(1.00000000000000,0.00000000000000,0.00000000000000));
#40=AXIS2_PLACEMENT_3D('',#37,#38,#39);
#41=CIRCLE('',#40,0.0450000000000000);
#42=EDGE_CURVE('',#34,#36,#41,.T.);
#43=ORIENTED_EDGE('',*,*,#42,.T.);
#44=CARTESIAN_POINT('',(0.677500000000000,0.467500000000000,-0.467500000000000));
#45=VERTEX_POINT('',#44);
#46=CARTESIAN_POINT('',(0.677500000000000,0.467500000000000,-0.467500000000000));
#47=DIRECTION('',(0.00000000000000,1.00000000000000,-7.40148683083438E-17));
#48=VECTOR('',#47,1.00000000000000);
#49=LINE('',#46,#48);
#50=EDGE_CURVE('',#45,#36,#49,.T.);
#51=ORIENTED_EDGE('',*,*,#50,.F.);
#52=CARTESIAN_POINT('',(0.677500000000000,0.467500000000000,-0.557500000000000));
#53=VERTEX_POINT('',#52);
#54=CARTESIAN_POINT('',(0.677500000000000,0.467500000000000,-0.512500000000000));
#55=DIRECTION('',(0.00000000000000,-1.00000000000000,6.12323399573676E-17));
#56=DIRECTION('',(1.00000000000000,0.00000000000000,0.00000000000000));
#57=AXIS2_PLACEMENT_3D('',#54,#55,#56);
#58=CIRCLE('',#57,0.0450000000000000);
#59=EDGE_CURVE('',#53,#45,#58,.T.);
#60=ORIENTED_EDGE('',*,*,#59,.F.);
#61=CARTESIAN_POINT('',(0.677500000000000,0.467500000000000,-0.557500000000000));
#62=DIRECTION('',(0.00000000000000,1.00000000000000,-7.40148683083438E-17));
#63=VECTOR('',#62,1.00000000000000);
#64=LINE('',#61,#63);
#65=EDGE_CURVE('',#53,#34,#64,.T.);
#66=ORIENTED_EDGE('',*,*,#65,.T.);
#67=EDGE_LOOP('',(#43,#51,#60,#66));
#68=FACE_OUTER_BOUND('',#67,.T.);
#69=CARTESIAN_POINT('',(0.677500000000000,0.467500000000000,-0.512500000000000));
#70=DIRECTION('',(0.00000000000000,1.00000000000000,-7.40148683083438E-17));
#71=DIRECTION('',(-1.00000000000000,0.00000000000000,0.00000000000000));
#72=AXIS2_PLACEMENT_3D('',#69,#70,#71);
#73=CYLINDRICAL_SURFACE('',#72,0.0450000000000000);
#74=ADVANCED_FACE('',(#68),#73,.T.);
#75=CARTESIAN_POINT('',(-0.677500000000000,6.46750000000000,-0.467500000000000));
#76=VERTEX_POINT('',#75);
#77=CARTESIAN_POINT('',(-0.677500000000000,6.46750000000000,-0.467500000000000));
#78=DIRECTION('',(-1.00000000000000,-0.00000000000000,-0.00000000000000));
#79=VECTOR('',#78,1.00000000000000);
#80=LINE('',#77,#79);
#81=EDGE_CURVE('',#36,#76,#80,.T.);
#82=ORIENTED_EDGE('',*,*,#81,.T.);
#83=CARTESIAN_POINT('',(-0.677500000000000,0.467500000000000,-0.467500000000000));
#84=VERTEX_POINT('',#83);
#85=CARTESIAN_POINT('',(-0.677500000000000,0.467500000000000,-0.467500000000000));
#86=DIRECTION('',(0.00000000000000,1.00000000000000,-7.40148683083438E-17));
#87=VECTOR('',#86,1.00000000000000);
#88=LINE('',#85,#87);
#89=EDGE_CURVE('',#84,#76,#88,.T.);
#90=ORIENTED_EDGE('',*,*,#89,.F.);
#91=CARTESIAN_POINT('',(-0.677500000000000,0.467500000000000,-0.467500000000000));
#92=DIRECTION('',(1.00000000000000,0.00000000000000,0.00000000000000));
#93=VECTOR('',#92,1.00000000000000);
#94=LINE('',#91,#93);
#95=EDGE_CURVE('',#84,#45,#94,.T.);
#96=ORIENTED_EDGE('',*,*,#95,.T.);
#97=ORIENTED_EDGE('',*,*,#50,.T.);
#98=EDGE_LOOP('',(#82,#90,#96,#97));
#99=FACE_OUTER_BOUND('',#98,.T.);
#100=CARTESIAN_POINT('',(1.11022302462516E-16,0.467500000000000,-0.467500000000000));
#101=DIRECTION('',(-0.00000000000000,7.40148683083438E-17,1.00000000000000));
#102=DIRECTION('',(1.00000000000000,0.00000000000000,0.00000000000000));
#103=AXIS2_PLACEMENT_3D('',#100,#101,#102);
#104=PLANE('',#103);
#105=ADVANCED_FACE('',(#99),#104,.T.);
#106=CARTESIAN_POINT('',(-0.687500000000000,6.46750000000000,-0.457500000000000));
#107=VERTEX_POINT('',#106);
#108=CARTESIAN_POINT('',(-0.677500000000000,6.46750000000000,-0.457500000000001));
#109=DIRECTION('',(0.00000000000000,1.00000000000000,-6.12323399573677E-17));
#110=DIRECTION('',(0.00000000000000,-6.12323399573677E-17,-1.00000000000000));
#111=AXIS2_PLACEMENT_3D('',#108,#109,#110);
#112=CIRCLE('',#111,0.0100000000000000);
#113=EDGE_CURVE('',#76,#107,#112,.T.);
#114=ORIENTED_EDGE('',*,*,#113,.T.);
#115=CARTESIAN_POINT('',(-0.687500000000000,0.467500000000000,-0.457500000000000));
#116=VERTEX_POINT('',#115);
#117=CARTESIAN_POINT('',(-0.687500000000000,0.467500000000000,-0.457500000000000));
#118=DIRECTION('',(0.00000000000000,1.00000000000000,-7.40148683083438E-17));
#119=VECTOR('',#118,1.00000000000000);
#120=LINE('',#117,#119);
#121=EDGE_CURVE('',#116,#107,#120,.T.);
#122=ORIENTED_EDGE('',*,*,#121,.F.);
#123=CARTESIAN_POINT('',(-0.677500000000000,0.467500000000000,-0.457500000000000));
#124=DIRECTION('',(0.00000000000000,-1.00000000000000,6.12323399573677E-17));
#125=DIRECTION('',(0.00000000000000,-6.12323399573677E-17,-1.00000000000000));
#126=AXIS2_PLACEMENT_3D('',#123,#124,#125);
#127=CIRCLE('',#126,0.0100000000000000);
#128=EDGE_CURVE('',#116,#84,#127,.T.);
#129=ORIENTED_EDGE('',*,*,#128,.T.);
#130=ORIENTED_EDGE('',*,*,#89,.T.);
#131=EDGE_LOOP('',(#114,#122,#129,#130));
#132=FACE_OUTER_BOUND('',#131,.T.);
#133=CARTESIAN_POINT('',(-0.677500000000000,0.467500000000000,-0.457500000000000));
#134=DIRECTION('',(0.00000000000000,1.00000000000000,-7.40148683083438E-17));
#135=DIRECTION('',(0.707106781186561,0.00000000000000,0.707106781186534));
#136=AXIS2_PLACEMENT_3D('',#133,#134,#135);
#137=CYLINDRICAL_SURFACE('',#136,0.0100000000000000);
#138=ADVANCED_FACE('',(#132),#137,.F.);
#139=CARTESIAN_POINT('',(-0.687500000000000,6.46750000000000,0.457499999999999));
#140=VERTEX_POINT('',#139);
#141=CARTESIAN_POINT('',(-0.687500000000000,6.46750000000000,0.457499999999999));
#142=DIRECTION('',(-1.21335849685810E-16,6.06679248429048E-17,1.00000000000000));
#143=VECTOR('',#142,1.00000000000000);
#144=LINE('',#141,#143);
#145=EDGE_CURVE('',#107,#140,#144,.T.);
#146=ORIENTED_EDGE('',*,*,#145,.T.);
#147=CARTESIAN_POINT('',(-0.687500000000000,0.467500000000000,0.457500000000000));
#148=VERTEX_POINT('',#147);
#149=CARTESIAN_POINT('',(-0.687500000000000,0.467500000000000,0.457500000000000));
#150=DIRECTION('',(0.00000000000000,1.00000000000000,-7.40148683083438E-17));
#151=VECTOR('',#150,1.00000000000000);
#152=LINE('',#149,#151);
#153=EDGE_CURVE('',#148,#140,#152,.T.);
#154=ORIENTED_EDGE('',*,*,#153,.F.);
#155=CARTESIAN_POINT('',(-0.687500000000000,0.467500000000000,0.457500000000000));
#156=DIRECTION('',(1.21335849685810E-16,-6.06679248429048E-17,-1.00000000000000));
#157=VECTOR('',#156,1.00000000000000);
#158=LINE('',#155,#157);
#159=EDGE_CURVE('',#148,#116,#158,.T.);
#160=ORIENTED_EDGE('',*,*,#159,.T.);
#161=ORIENTED_EDGE('',*,*,#121,.T.);
#162=EDGE_LOOP('',(#146,#154,#160,#161));
#163=FACE_OUTER_BOUND('',#162,.T.);
#164=CARTESIAN_POINT('',(-0.687500000000000,0.467500000000000,0.00000000000000));
#165=DIRECTION('',(1.00000000000000,8.98065693557619E-33,1.21335849685810E-16));
#166=DIRECTION('',(1.21335849685810E-16,-6.06679248429048E-17,-1.00000000000000));
#167=AXIS2_PLACEMENT_3D('',#164,#165,#166);
#168=PLANE('',#167);
#169=ADVANCED_FACE('',(#163),#168,.T.);
#170=CARTESIAN_POINT('',(-0.777500000000000,6.46750000000000,0.457499999999999));
#171=VERTEX_POINT('',#170);
#172=CARTESIAN_POINT('',(-0.732500000000000,6.46750000000000,0.457499999999999));
#173=DIRECTION('',(0.00000000000000,-1.00000000000000,6.12323399573676E-17));
#174=DIRECTION('',(1.00000000000000,0.00000000000000,0.00000000000000));
#175=AXIS2_PLACEMENT_3D('',#172,#173,#174);
#176=CIRCLE('',#175,0.0450000000000000);
#177=EDGE_CURVE('',#140,#171,#176,.T.);
#178=ORIENTED_EDGE('',*,*,#177,.T.);
#179=CARTESIAN_POINT('',(-0.777500000000000,0.467500000000000,0.457500000000000));
#180=VERTEX_POINT('',#179);
#181=CARTESIAN_POINT('',(-0.777500000000000,0.467500000000000,0.457500000000000));
#182=DIRECTION('',(0.00000000000000,1.00000000000000,-7.40148683083438E-17));
#183=VECTOR('',#182,1.00000000000000);
#184=LINE('',#181,#183);
#185=EDGE_CURVE('',#180,#171,#184,.T.);
#186=ORIENTED_EDGE('',*,*,#185,.F.);
#187=CARTESIAN_POINT('',(-0.732500000000000,0.467500000000000,0.457500000000000));
#188=DIRECTION('',(0.00000000000000,-1.00000000000000,6.12323399573676E-17));
#189=DIRECTION('',(1.00000000000000,0.00000000000000,0.00000000000000));
#190=AXIS2_PLACEMENT_3D('',#187,#188,#189);
#191=CIRCLE('',#190,0.0450000000000000);
#192=EDGE_CURVE('',#148,#180,#191,.T.);
#193=ORIENTED_EDGE('',*,*,#192,.F.);
#194=ORIENTED_EDGE('',*,*,#153,.T.);
#195=EDGE_LOOP('',(#178,#186,#193,#194));
#196=FACE_OUTER_BOUND('',#195,.T.);
#197=CARTESIAN_POINT('',(-0.732500000000000,0.467500000000000,0.457500000000000));
#198=DIRECTION('',(0.00000000000000,1.00000000000000,-7.40148683083438E-17));
#199=DIRECTION('',(0.00000000000000,0.00000000000000,-1.00000000000000));
#200=AXIS2_PLACEMENT_3D('',#197,#198,#199);
#201=CYLINDRICAL_SURFACE('',#200,0.0450000000000000);
#202=ADVANCED_FACE('',(#196),#201,.T.);
#203=CARTESIAN_POINT('',(-0.777500000000000,6.46750000000000,-0.457500000000000));
#204=VERTEX_POINT('',#203);
#205=CARTESIAN_POINT('',(-0.777500000000000,6.46750000000000,0.457499999999999));
#206=DIRECTION('',(0.00000000000000,-6.06679248429048E-17,-1.00000000000000));
#207=VECTOR('',#206,1.00000000000000);
#208=LINE('',#205,#207);
#209=EDGE_CURVE('',#171,#204,#208,.T.);
#210=ORIENTED_EDGE('',*,*,#209,.T.);
#211=CARTESIAN_POINT('',(-0.777500000000000,0.467500000000000,-0.457500000000000));
#212=VERTEX_POINT('',#211);
#213=CARTESIAN_POINT('',(-0.777500000000000,0.467500000000000,-0.457500000000000));
#214=DIRECTION('',(0.00000000000000,1.00000000000000,-7.40148683083438E-17));
#215=VECTOR('',#214,1.00000000000000);
#216=LINE('',#213,#215);
#217=EDGE_CURVE('',#212,#204,#216,.T.);
#218=ORIENTED_EDGE('',*,*,#217,.F.);
#219=CARTESIAN_POINT('',(-0.777500000000000,0.467500000000000,0.457500000000000));
#220=DIRECTION('',(0.00000000000000,-6.06679248429048E-17,-1.00000000000000));
#221=VECTOR('',#220,1.00000000000000);
#222=LINE('',#219,#221);
#223=EDGE_CURVE('',#180,#212,#222,.T.);
#224=ORIENTED_EDGE('',*,*,#223,.F.);
#225=ORIENTED_EDGE('',*,*,#185,.T.);
#226=EDGE_LOOP('',(#210,#218,#224,#225));
#227=FACE_OUTER_BOUND('',#226,.T.);
#228=CARTESIAN_POINT('',(-0.777500000000000,0.467500000000000,0.00000000000000));
#229=DIRECTION('',(-1.00000000000000,0.00000000000000,-0.00000000000000));
#230=DIRECTION('',(-0.00000000000000,6.06679248429048E-17,1.00000000000000));
#231=AXIS2_PLACEMENT_3D('',#228,#229,#230);
#232=PLANE('',#231);
#233=ADVANCED_FACE('',(#227),#232,.T.);
#234=CARTESIAN_POINT('',(-0.677500000000000,6.46750000000000,-0.557500000000000));
#235=VERTEX_POINT('',#234);
#236=CARTESIAN_POINT('',(-0.677500000000000,6.46750000000000,-0.457500000000001));
#237=DIRECTION('',(0.00000000000000,-1.00000000000000,6.12323399573677E-17));
#238=DIRECTION('',(0.00000000000000,-6.12323399573677E-17,-1.00000000000000));
#239=AXIS2_PLACEMENT_3D('',#236,#237,#238);
#240=CIRCLE('',#239,0.100000000000000);
#241=EDGE_CURVE('',#204,#235,#240,.T.);
#242=ORIENTED_EDGE('',*,*,#241,.T.);
#243=CARTESIAN_POINT('',(-0.677500000000000,0.467500000000000,-0.557500000000000));
#244=VERTEX_POINT('',#243);
#245=CARTESIAN_POINT('',(-0.677500000000000,0.467500000000000,-0.557500000000000));
#246=DIRECTION('',(0.00000000000000,1.00000000000000,-7.40148683083438E-17));
#247=VECTOR('',#246,1.00000000000000);
#248=LINE('',#245,#247);
#249=EDGE_CURVE('',#244,#235,#248,.T.);
#250=ORIENTED_EDGE('',*,*,#249,.F.);
#251=CARTESIAN_POINT('',(-0.677500000000000,0.467500000000000,-0.457500000000000));
#252=DIRECTION('',(0.00000000000000,-1.00000000000000,6.12323399573677E-17));
#253=DIRECTION('',(0.00000000000000,-6.12323399573677E-17,-1.00000000000000));
#254=AXIS2_PLACEMENT_3D('',#251,#252,#253);
#255=CIRCLE('',#254,0.100000000000000);
#256=EDGE_CURVE('',#212,#244,#255,.T.);
#257=ORIENTED_EDGE('',*,*,#256,.F.);
#258=ORIENTED_EDGE('',*,*,#217,.T.);
#259=EDGE_LOOP('',(#242,#250,#257,#258));
#260=FACE_OUTER_BOUND('',#259,.T.);
#261=CARTESIAN_POINT('',(-0.677500000000000,0.467500000000000,-0.457500000000000));
#262=DIRECTION('',(0.00000000000000,1.00000000000000,-7.40148683083438E-17));
#263=DIRECTION('',(0.707106781186549,0.00000000000000,0.707106781186546));
#264=AXIS2_PLACEMENT_3D('',#261,#262,#263);
#265=CYLINDRICAL_SURFACE('',#264,0.100000000000000);
#266=ADVANCED_FACE('',(#260),#265,.T.);
#267=CARTESIAN_POINT('',(-0.677500000000000,6.46750000000000,-0.557500000000000));
#268=DIRECTION('',(1.00000000000000,0.00000000000000,0.00000000000000));
#269=VECTOR('',#268,1.00000000000000);
#270=LINE('',#267,#269);
#271=EDGE_CURVE('',#235,#34,#270,.T.);
#272=ORIENTED_EDGE('',*,*,#271,.T.);
#273=ORIENTED_EDGE('',*,*,#65,.F.);
#274=CARTESIAN_POINT('',(-0.677500000000000,0.467500000000000,-0.557500000000000));
#275=DIRECTION('',(1.00000000000000,0.00000000000000,0.00000000000000));
#276=VECTOR('',#275,1.00000000000000);
#277=LINE('',#274,#276);
#278=EDGE_CURVE('',#244,#53,#277,.T.);
#279=ORIENTED_EDGE('',*,*,#278,.F.);
#280=ORIENTED_EDGE('',*,*,#249,.T.);
#281=EDGE_LOOP('',(#272,#273,#279,#280));
#282=FACE_OUTER_BOUND('',#281,.T.);
#283=CARTESIAN_POINT('',(1.11022302462516E-16,0.467500000000000,-0.557500000000000));
#284=DIRECTION('',(0.00000000000000,-7.40148683083438E-17,-1.00000000000000));
#285=DIRECTION('',(-1.00000000000000,-0.00000000000000,-0.00000000000000));
#286=AXIS2_PLACEMENT_3D('',#283,#284,#285);
#287=PLANE('',#286);
#288=ADVANCED_FACE('',(#282),#287,.T.);
#289=ORIENTED_EDGE('',*,*,#42,.F.);
#290=ORIENTED_EDGE('',*,*,#271,.F.);
#291=ORIENTED_EDGE('',*,*,#241,.F.);
#292=ORIENTED_EDGE('',*,*,#209,.F.);
#293=ORIENTED_EDGE('',*,*,#177,.F.);
#294=ORIENTED_EDGE('',*,*,#145,.F.);
#295=ORIENTED_EDGE('',*,*,#113,.F.);
#296=ORIENTED_EDGE('',*,*,#81,.F.);
#297=EDGE_LOOP('',(#289,#290,#291,#292,#293,#294,#295,#296));
#298=FACE_OUTER_BOUND('',#297,.T.);
#299=CARTESIAN_POINT('',(-0.254299625000000,6.46750000000000,-0.557500000000000));
#300=DIRECTION('',(0.00000000000000,1.00000000000000,-7.61237368783749E-17));
#301=DIRECTION('',(-1.00000000000000,0.00000000000000,0.00000000000000));
#302=AXIS2_PLACEMENT_3D('',#299,#300,#301);
#303=PLANE('',#302);
#304=ADVANCED_FACE('',(#298),#303,.T.);
#305=ORIENTED_EDGE('',*,*,#278,.T.);
#306=ORIENTED_EDGE('',*,*,#59,.T.);
#307=ORIENTED_EDGE('',*,*,#95,.F.);
#308=ORIENTED_EDGE('',*,*,#128,.F.);
#309=ORIENTED_EDGE('',*,*,#159,.F.);
#310=ORIENTED_EDGE('',*,*,#192,.T.);
#311=ORIENTED_EDGE('',*,*,#223,.T.);
#312=ORIENTED_EDGE('',*,*,#256,.T.);
#313=EDGE_LOOP('',(#305,#306,#307,#308,#309,#310,#311,#312));
#314=FACE_OUTER_BOUND('',#313,.T.);
#315=CARTESIAN_POINT('',(-0.254299625000000,0.467500000000000,-0.557500000000000));
#316=DIRECTION('',(-0.00000000000000,1.00000000000000,-7.61237368783749E-17));
#317=DIRECTION('',(-1.00000000000000,-0.00000000000000,0.00000000000000));
#318=AXIS2_PLACEMENT_3D('',#315,#316,#317);
#319=PLANE('',#318);
#320=ADVANCED_FACE('',(#314),#319,.F.);
#321=CLOSED_SHELL('',(#74,#105,#138,#169,#202,#233,#266,#288,#304,#320));
#322=MANIFOLD_SOLID_BREP('',#321);
#323=COLOUR_RGB('',1.00000000000000,0.00000000000000,0.00000000000000);
#324=FILL_AREA_STYLE_COLOUR('',#323);
#325=FILL_AREA_STYLE('',(#324));
#326=SURFACE_STYLE_FILL_AREA(#325);
#327=SURFACE_SIDE_STYLE('',(#326));
#328=SURFACE_STYLE_USAGE(.BOTH.,#327);
#329=PRESENTATION_STYLE_ASSIGNMENT((#328));
#330=STYLED_ITEM('',(#329),#322);
#331=ADVANCED_BREP_SHAPE_REPRESENTATION('',(#322,#23),#18);
#332=PRODUCT('','','',(#2));
#333=PRODUCT_DEFINITION_FORMATION_WITH_SPECIFIED_SOURCE('','',#332,.NOT_KNOWN.);
#334=PRODUCT_CATEGORY('part','');
#335=PRODUCT_RELATED_PRODUCT_CATEGORY('detail','',(#332));
#336=PRODUCT_CATEGORY_RELATIONSHIP('','',#334,#335);
#337=PRODUCT_DEFINITION('','',#333,#1);
#338=PRODUCT_DEFINITION_SHAPE('NONE','NONE',#337);
#339=SHAPE_DEFINITION_REPRESENTATION(#338,#331);
#340=PRESENTATION_LAYER_ASSIGNMENT('1','Unnamed [1]',(#322));
ENDSEC;
END-ISO-10303-21;
