ISO-10303-21;
HEADER;
FILE_DESCRIPTION(('', 'CAx-IF Rec.Pracs.---Representation and Presentation of Product Manufacturing Information (PMI)---4.0---2014-10-13'),'2;1');
FILE_NAME('C:/Program Files/Kubotek/KeyCreatorPro.2021.SP1/STEP/SG2594.STP', '2021-04-14T11:53:51',(''), (''), 'Kubotek Kosmos Version 3.0.7268.7268', 'KeyCreator Pro', '');
FILE_SCHEMA(('AP242_MANAGED_MODEL_BASED_3D_ENGINEERING_MIM_LF  { 1 0 10303 442 1 1 4 }'));
ENDSEC;
DATA;
#1=PRODUCT_DEFINITION_CONTEXT('',#4,'design');
#2=PRODUCT_CONTEXT('',#4,'mechanical');
#3=APPLICATION_PROTOCOL_DEFINITION('international standard','ap242_managed_model_based_3d_engineering',2011,#4);
#4=APPLICATION_CONTEXT('managed model based 3d engineering');
#10=DIMENSIONAL_EXPONENTS(1.0,0.0,0.0,0.0,0.0,0.0,0.0);
#11=DIMENSIONAL_EXPONENTS(0.0,0.0,0.0,0.0,0.0,0.0,0.0);
#12=(LENGTH_UNIT()NAMED_UNIT(#10)SI_UNIT(.MILLI.,.METRE.));
#13=(NAMED_UNIT(#11)PLANE_ANGLE_UNIT()SI_UNIT($,.RADIAN.));
#14=(NAMED_UNIT(#11)SI_UNIT($,.STERADIAN.)SOLID_ANGLE_UNIT());
#15=LENGTH_MEASURE_WITH_UNIT(LENGTH_MEASURE(25.4),#12);
#16= (CONVERSION_BASED_UNIT('INCH',#15)LENGTH_UNIT()NAMED_UNIT(#10));
#17=UNCERTAINTY_MEASURE_WITH_UNIT(LENGTH_MEASURE(1.0E-006),#16,'','');
#18=(GEOMETRIC_REPRESENTATION_CONTEXT(3)GLOBAL_UNCERTAINTY_ASSIGNED_CONTEXT((#17))GLOBAL_UNIT_ASSIGNED_CONTEXT((#16,#13,#14))REPRESENTATION_CONTEXT('NONE','WORKSPACE'));
#20=CARTESIAN_POINT('',(0.00000000000000,0.00000000000000,0.00000000000000));
#21=DIRECTION('',(0.00000000000000,0.00000000000000,1.00000000000000));
#22=DIRECTION('',(1.00000000000000,0.00000000000000,0.00000000000000));
#23=AXIS2_PLACEMENT_3D('',#20,#21,#22);
#24=CARTESIAN_POINT('',(0.220379366208418,3.10500000000000,0.0350818871487969));
#25=VERTEX_POINT('',#24);
#26=CARTESIAN_POINT('',(0.224629386103953,3.10500000000000,0.0899174345047268));
#27=VERTEX_POINT('',#26);
#28=CARTESIAN_POINT('',(0.222500000000007,3.10500000000000,0.0625000000000121));
#29=DIRECTION('',(0.00000000000000,-1.00000000000000,6.12323399573677E-17));
#30=DIRECTION('',(1.00000000000000,0.00000000000000,0.00000000000000));
#31=AXIS2_PLACEMENT_3D('',#28,#29,#30);
#32=CIRCLE('',#31,0.0275000000000000);
#33=EDGE_CURVE('',#25,#27,#32,.T.);
#34=ORIENTED_EDGE('',*,*,#33,.T.);
#35=CARTESIAN_POINT('',(0.224629386103948,-2.89500000000000,0.0899174345047017));
#36=VERTEX_POINT('',#35);
#37=CARTESIAN_POINT('',(0.224629386103951,0.105000000000000,0.0899174345047143));
#38=DIRECTION('',(-7.40148683083438E-16,-1.00000000000000,-4.18877895332533E-15));
#39=VECTOR('',#38,1.00000000000000);
#40=LINE('',#37,#39);
#41=EDGE_CURVE('',#27,#36,#40,.T.);
#42=ORIENTED_EDGE('',*,*,#41,.T.);
#43=CARTESIAN_POINT('',(0.220379366208414,-2.89500000000000,0.0350818871487718));
#44=VERTEX_POINT('',#43);
#45=CARTESIAN_POINT('',(0.222500000000002,-2.89500000000000,0.0624999999999870));
#46=DIRECTION('',(0.00000000000000,1.00000000000000,-6.12323399573677E-17));
#47=DIRECTION('',(1.00000000000000,0.00000000000000,0.00000000000000));
#48=AXIS2_PLACEMENT_3D('',#45,#46,#47);
#49=CIRCLE('',#48,0.0275000000000000);
#50=EDGE_CURVE('',#36,#44,#49,.T.);
#51=ORIENTED_EDGE('',*,*,#50,.T.);
#52=CARTESIAN_POINT('',(0.220379366208416,0.105000000000000,0.0350818871487843));
#53=DIRECTION('',(7.40148683083438E-16,1.00000000000000,4.18877895332533E-15));
#54=VECTOR('',#53,1.00000000000000);
#55=LINE('',#52,#54);
#56=EDGE_CURVE('',#44,#25,#55,.T.);
#57=ORIENTED_EDGE('',*,*,#56,.T.);
#58=EDGE_LOOP('',(#34,#42,#51,#57));
#59=FACE_OUTER_BOUND('',#58,.T.);
#60=CARTESIAN_POINT('',(0.222500000000005,0.105000000000000,0.0624999999999995));
#61=DIRECTION('',(7.40148683083438E-16,1.00000000000000,4.18877895332533E-15));
#62=DIRECTION('',(-0.997009964625619,5.04646829375071E-16,0.0772730899940061));
#63=AXIS2_PLACEMENT_3D('',#60,#61,#62);
#64=CYLINDRICAL_SURFACE('',#63,0.0275000000000000);
#65=ADVANCED_FACE('',(#59),#64,.T.);
#66=CARTESIAN_POINT('',(0.0398262980575983,3.10500000000000,0.104270240839855));
#67=VERTEX_POINT('',#66);
#68=CARTESIAN_POINT('',(0.0398262980575983,3.10500000000000,0.104270240839855));
#69=DIRECTION('',(-0.996997618353263,2.24608607009842E-16,0.0774322219616754));
#70=VECTOR('',#69,1.00000000000000);
#71=LINE('',#68,#70);
#72=EDGE_CURVE('',#27,#67,#71,.T.);
#73=ORIENTED_EDGE('',*,*,#72,.T.);
#74=CARTESIAN_POINT('',(0.0398262980575939,-2.89500000000000,0.104270240839830));
#75=VERTEX_POINT('',#74);
#76=CARTESIAN_POINT('',(0.0398262980575961,0.105000000000000,0.104270240839842));
#77=DIRECTION('',(7.40148683083438E-16,1.00000000000000,4.18877895332533E-15));
#78=VECTOR('',#77,1.00000000000000);
#79=LINE('',#76,#78);
#80=EDGE_CURVE('',#75,#67,#79,.T.);
#81=ORIENTED_EDGE('',*,*,#80,.F.);
#82=CARTESIAN_POINT('',(0.0398262980575939,-2.89500000000000,0.104270240839830));
#83=DIRECTION('',(0.996997618353263,-2.24608607009842E-16,-0.0774322219616754));
#84=VECTOR('',#83,1.00000000000000);
#85=LINE('',#82,#84);
#86=EDGE_CURVE('',#75,#36,#85,.T.);
#87=ORIENTED_EDGE('',*,*,#86,.T.);
#88=ORIENTED_EDGE('',*,*,#41,.F.);
#89=EDGE_LOOP('',(#73,#81,#87,#88));
#90=FACE_OUTER_BOUND('',#89,.T.);
#91=CARTESIAN_POINT('',(0.132227842080773,0.105000000000000,0.0970938376722783));
#92=DIRECTION('',(0.0774322219616754,-4.23351399738679E-15,0.996997618353263));
#93=DIRECTION('',(0.996997618353263,-2.24608607009842E-16,-0.0774322219616754));
#94=AXIS2_PLACEMENT_3D('',#91,#92,#93);
#95=PLANE('',#94);
#96=ADVANCED_FACE('',(#90),#95,.T.);
#97=CARTESIAN_POINT('',(-0.0398262980575868,3.10500000000000,0.104270240839855));
#98=VERTEX_POINT('',#97);
#99=CARTESIAN_POINT('',(6.66133814775094E-15,3.10500000000000,-0.408523055094484));
#100=DIRECTION('',(-8.65956056235493E-17,-1.00000000000000,1.47827945580917E-16));
#101=DIRECTION('',(2.22044604925031E-16,1.47827945580917E-16,1.00000000000000));
#102=AXIS2_PLACEMENT_3D('',#99,#100,#101);
#103=CIRCLE('',#102,0.514337533505163);
#104=EDGE_CURVE('',#67,#98,#103,.T.);
#105=ORIENTED_EDGE('',*,*,#104,.T.);
#106=CARTESIAN_POINT('',(-0.0398262980575912,-2.89500000000000,0.104270240839830));
#107=VERTEX_POINT('',#106);
#108=CARTESIAN_POINT('',(-0.0398262980575890,0.105000000000000,0.104270240839842));
#109=DIRECTION('',(-7.40148683083438E-16,-1.00000000000000,-4.18877895332533E-15));
#110=VECTOR('',#109,1.00000000000000);
#111=LINE('',#108,#110);
#112=EDGE_CURVE('',#98,#107,#111,.T.);
#113=ORIENTED_EDGE('',*,*,#112,.T.);
#114=CARTESIAN_POINT('',(2.22044604925031E-15,-2.89500000000000,-0.408523055094509));
#115=DIRECTION('',(8.65956056235493E-17,1.00000000000000,-1.47827945580917E-16));
#116=DIRECTION('',(2.22044604925031E-16,1.47827945580917E-16,1.00000000000000));
#117=AXIS2_PLACEMENT_3D('',#114,#115,#116);
#118=CIRCLE('',#117,0.514337533505163);
#119=EDGE_CURVE('',#107,#75,#118,.T.);
#120=ORIENTED_EDGE('',*,*,#119,.T.);
#121=ORIENTED_EDGE('',*,*,#80,.T.);
#122=EDGE_LOOP('',(#105,#113,#120,#121));
#123=FACE_OUTER_BOUND('',#122,.T.);
#124=CARTESIAN_POINT('',(4.44089209850063E-15,0.105000000000000,-0.408523055094497));
#125=DIRECTION('',(7.40148683083438E-16,1.00000000000000,4.18877895332533E-15));
#126=DIRECTION('',(0.00000000000000,0.00000000000000,-1.00000000000000));
#127=AXIS2_PLACEMENT_3D('',#124,#125,#126);
#128=CYLINDRICAL_SURFACE('',#127,0.514337533505163);
#129=ADVANCED_FACE('',(#123),#128,.T.);
#130=CARTESIAN_POINT('',(-0.224629386103940,3.10500000000000,0.0899174345047268));
#131=VERTEX_POINT('',#130);
#132=CARTESIAN_POINT('',(-0.224629386103940,3.10500000000000,0.0899174345047268));
#133=DIRECTION('',(-0.996997618353263,-2.99478142679792E-16,-0.0774322219616761));
#134=VECTOR('',#133,1.00000000000000);
#135=LINE('',#132,#134);
#136=EDGE_CURVE('',#98,#131,#135,.T.);
#137=ORIENTED_EDGE('',*,*,#136,.T.);
#138=CARTESIAN_POINT('',(-0.224629386103944,-2.89500000000000,0.0899174345047017));
#139=VERTEX_POINT('',#138);
#140=CARTESIAN_POINT('',(-0.224629386103942,0.105000000000000,0.0899174345047143));
#141=DIRECTION('',(7.40148683083438E-16,1.00000000000000,4.18877895332533E-15));
#142=VECTOR('',#141,1.00000000000000);
#143=LINE('',#140,#142);
#144=EDGE_CURVE('',#139,#131,#143,.T.);
#145=ORIENTED_EDGE('',*,*,#144,.F.);
#146=CARTESIAN_POINT('',(-0.224629386103944,-2.89500000000000,0.0899174345047017));
#147=DIRECTION('',(0.996997618353263,2.99478142679792E-16,0.0774322219616761));
#148=VECTOR('',#147,1.00000000000000);
#149=LINE('',#146,#148);
#150=EDGE_CURVE('',#139,#107,#149,.T.);
#151=ORIENTED_EDGE('',*,*,#150,.T.);
#152=ORIENTED_EDGE('',*,*,#112,.F.);
#153=EDGE_LOOP('',(#137,#145,#151,#152));
#154=FACE_OUTER_BOUND('',#153,.T.);
#155=CARTESIAN_POINT('',(-0.132227842080765,0.105000000000000,0.0970938376722783));
#156=DIRECTION('',(-0.0774322219616761,-4.11889128316047E-15,0.996997618353263));
#157=DIRECTION('',(0.996997618353263,2.99478142679792E-16,0.0774322219616761));
#158=AXIS2_PLACEMENT_3D('',#155,#156,#157);
#159=PLANE('',#158);
#160=ADVANCED_FACE('',(#154),#159,.T.);
#161=CARTESIAN_POINT('',(-0.220379366208405,3.10500000000000,0.0350818871487969));
#162=VERTEX_POINT('',#161);
#163=CARTESIAN_POINT('',(-0.222499999999993,3.10500000000000,0.0625000000000121));
#164=DIRECTION('',(0.00000000000000,-1.00000000000000,6.12323399573677E-17));
#165=DIRECTION('',(1.00000000000000,0.00000000000000,0.00000000000000));
#166=AXIS2_PLACEMENT_3D('',#163,#164,#165);
#167=CIRCLE('',#166,0.0275000000000000);
#168=EDGE_CURVE('',#131,#162,#167,.T.);
#169=ORIENTED_EDGE('',*,*,#168,.T.);
#170=CARTESIAN_POINT('',(-0.220379366208409,-2.89500000000000,0.0350818871487718));
#171=VERTEX_POINT('',#170);
#172=CARTESIAN_POINT('',(-0.220379366208407,0.105000000000000,0.0350818871487844));
#173=DIRECTION('',(-7.40148683083438E-16,-1.00000000000000,-4.18877895332533E-15));
#174=VECTOR('',#173,1.00000000000000);
#175=LINE('',#172,#174);
#176=EDGE_CURVE('',#162,#171,#175,.T.);
#177=ORIENTED_EDGE('',*,*,#176,.T.);
#178=CARTESIAN_POINT('',(-0.222499999999998,-2.89500000000000,0.0624999999999870));
#179=DIRECTION('',(0.00000000000000,1.00000000000000,-6.12323399573677E-17));
#180=DIRECTION('',(1.00000000000000,0.00000000000000,0.00000000000000));
#181=AXIS2_PLACEMENT_3D('',#178,#179,#180);
#182=CIRCLE('',#181,0.0275000000000000);
#183=EDGE_CURVE('',#171,#139,#182,.T.);
#184=ORIENTED_EDGE('',*,*,#183,.T.);
#185=ORIENTED_EDGE('',*,*,#144,.T.);
#186=EDGE_LOOP('',(#169,#177,#184,#185));
#187=FACE_OUTER_BOUND('',#186,.T.);
#188=CARTESIAN_POINT('',(-0.222499999999996,0.105000000000000,0.0624999999999995));
#189=DIRECTION('',(7.40148683083438E-16,1.00000000000000,4.18877895332533E-15));
#190=DIRECTION('',(1.00000000000000,-7.40148683083438E-16,-3.10031922603136E-30));
#191=AXIS2_PLACEMENT_3D('',#188,#189,#190);
#192=CYLINDRICAL_SURFACE('',#191,0.0275000000000000);
#193=ADVANCED_FACE('',(#187),#192,.T.);
#194=CARTESIAN_POINT('',(-0.0274999999999975,3.10500000000000,0.0500000000000126));
#195=VERTEX_POINT('',#194);
#196=CARTESIAN_POINT('',(-0.220379366208405,3.10500000000000,0.0350818871487967));
#197=DIRECTION('',(0.997022285498734,1.76953178451800E-46,0.0771139560577776));
#198=VECTOR('',#197,1.00000000000000);
#199=LINE('',#196,#198);
#200=EDGE_CURVE('',#162,#195,#199,.T.);
#201=ORIENTED_EDGE('',*,*,#200,.T.);
#202=CARTESIAN_POINT('',(-0.0275000000000019,-2.89500000000000,0.0499999999999874));
#203=VERTEX_POINT('',#202);
#204=CARTESIAN_POINT('',(-0.0274999999999997,0.105000000000000,0.0500000000000000));
#205=DIRECTION('',(7.40148683083438E-16,1.00000000000000,4.18877895332533E-15));
#206=VECTOR('',#205,1.00000000000000);
#207=LINE('',#204,#206);
#208=EDGE_CURVE('',#203,#195,#207,.T.);
#209=ORIENTED_EDGE('',*,*,#208,.F.);
#210=CARTESIAN_POINT('',(-0.220379366208409,-2.89500000000000,0.0350818871487716));
#211=DIRECTION('',(-0.997022285498734,-1.76953178451800E-46,-0.0771139560577776));
#212=VECTOR('',#211,1.00000000000000);
#213=LINE('',#210,#212);
#214=EDGE_CURVE('',#203,#171,#213,.T.);
#215=ORIENTED_EDGE('',*,*,#214,.T.);
#216=ORIENTED_EDGE('',*,*,#176,.F.);
#217=EDGE_LOOP('',(#201,#209,#215,#216));
#218=FACE_OUTER_BOUND('',#217,.T.);
#219=CARTESIAN_POINT('',(-0.123939683104203,0.105000000000000,0.0425409435743920));
#220=DIRECTION('',(0.0771139560577776,4.11923017246990E-15,-0.997022285498734));
#221=DIRECTION('',(-0.997022285498734,-0.00000000000000,-0.0771139560577776));
#222=AXIS2_PLACEMENT_3D('',#219,#220,#221);
#223=PLANE('',#222);
#224=ADVANCED_FACE('',(#218),#223,.T.);
#225=CARTESIAN_POINT('',(-0.0274999999999975,3.10500000000000,-0.0499999999999874));
#226=VERTEX_POINT('',#225);
#227=CARTESIAN_POINT('',(-0.0274999999999975,3.10500000000000,0.0500000000000126));
#228=DIRECTION('',(0.00000000000000,-1.38777878078145E-16,-1.00000000000000));
#229=VECTOR('',#228,1.00000000000000);
#230=LINE('',#227,#229);
#231=EDGE_CURVE('',#195,#226,#230,.T.);
#232=ORIENTED_EDGE('',*,*,#231,.T.);
#233=CARTESIAN_POINT('',(-0.0275000000000019,-2.89500000000000,-0.0500000000000126));
#234=VERTEX_POINT('',#233);
#235=CARTESIAN_POINT('',(-0.0274999999999997,0.105000000000000,-0.0500000000000000));
#236=DIRECTION('',(7.40148683083438E-16,1.00000000000000,4.18877895332533E-15));
#237=VECTOR('',#236,1.00000000000000);
#238=LINE('',#235,#237);
#239=EDGE_CURVE('',#234,#226,#238,.T.);
#240=ORIENTED_EDGE('',*,*,#239,.F.);
#241=CARTESIAN_POINT('',(-0.0275000000000019,-2.89500000000000,0.0499999999999874));
#242=DIRECTION('',(0.00000000000000,1.38777878078145E-16,1.00000000000000));
#243=VECTOR('',#242,1.00000000000000);
#244=LINE('',#241,#243);
#245=EDGE_CURVE('',#234,#203,#244,.T.);
#246=ORIENTED_EDGE('',*,*,#245,.T.);
#247=ORIENTED_EDGE('',*,*,#208,.T.);
#248=EDGE_LOOP('',(#232,#240,#246,#247));
#249=FACE_OUTER_BOUND('',#248,.T.);
#250=CARTESIAN_POINT('',(-0.0274999999999997,0.105000000000000,0.00000000000000));
#251=DIRECTION('',(-1.00000000000000,7.40148683083438E-16,-1.02716263700653E-31));
#252=DIRECTION('',(-0.00000000000000,1.38777878078145E-16,1.00000000000000));
#253=AXIS2_PLACEMENT_3D('',#250,#251,#252);
#254=PLANE('',#253);
#255=ADVANCED_FACE('',(#249),#254,.T.);
#256=CARTESIAN_POINT('',(-0.452499999999997,3.10500000000000,-0.0499999999999873));
#257=VERTEX_POINT('',#256);
#258=CARTESIAN_POINT('',(-0.452499999999997,3.10500000000000,-0.0499999999999873));
#259=DIRECTION('',(-1.00000000000000,8.61696913538416E-61,3.75516611270274E-16));
#260=VECTOR('',#259,1.00000000000000);
#261=LINE('',#258,#260);
#262=EDGE_CURVE('',#226,#257,#261,.T.);
#263=ORIENTED_EDGE('',*,*,#262,.T.);
#264=CARTESIAN_POINT('',(-0.452500000000002,-2.89500000000000,-0.0500000000000124));
#265=VERTEX_POINT('',#264);
#266=CARTESIAN_POINT('',(-0.452500000000000,0.105000000000000,-0.0499999999999998));
#267=DIRECTION('',(7.40148683083438E-16,1.00000000000000,4.18877895332533E-15));
#268=VECTOR('',#267,1.00000000000000);
#269=LINE('',#266,#268);
#270=EDGE_CURVE('',#265,#257,#269,.T.);
#271=ORIENTED_EDGE('',*,*,#270,.F.);
#272=CARTESIAN_POINT('',(-0.452500000000002,-2.89500000000000,-0.0500000000000124));
#273=DIRECTION('',(1.00000000000000,-8.61696913538416E-61,-3.75516611270274E-16));
#274=VECTOR('',#273,1.00000000000000);
#275=LINE('',#272,#274);
#276=EDGE_CURVE('',#265,#234,#275,.T.);
#277=ORIENTED_EDGE('',*,*,#276,.T.);
#278=ORIENTED_EDGE('',*,*,#239,.T.);
#279=EDGE_LOOP('',(#263,#271,#277,#278));
#280=FACE_OUTER_BOUND('',#279,.T.);
#281=CARTESIAN_POINT('',(-0.240000000000000,0.105000000000000,-0.0499999999999999));
#282=DIRECTION('',(3.75516611270274E-16,-4.18877895332533E-15,1.00000000000000));
#283=DIRECTION('',(1.00000000000000,0.00000000000000,-3.75516611270274E-16));
#284=AXIS2_PLACEMENT_3D('',#281,#282,#283);
#285=PLANE('',#284);
#286=ADVANCED_FACE('',(#280),#285,.T.);
#287=CARTESIAN_POINT('',(-0.452499999999997,3.10500000000000,-0.104999999999987));
#288=VERTEX_POINT('',#287);
#289=CARTESIAN_POINT('',(-0.452499999999997,3.10500000000000,-0.0774999999999876));
#290=DIRECTION('',(0.00000000000000,-1.00000000000000,6.12323399573677E-17));
#291=DIRECTION('',(1.00000000000000,0.00000000000000,0.00000000000000));
#292=AXIS2_PLACEMENT_3D('',#289,#290,#291);
#293=CIRCLE('',#292,0.0275000000000000);
#294=EDGE_CURVE('',#257,#288,#293,.T.);
#295=ORIENTED_EDGE('',*,*,#294,.T.);
#296=CARTESIAN_POINT('',(-0.452500000000002,-2.89500000000000,-0.105000000000013));
#297=VERTEX_POINT('',#296);
#298=CARTESIAN_POINT('',(-0.452500000000000,0.105000000000000,-0.105000000000000));
#299=DIRECTION('',(-7.40148683083438E-16,-1.00000000000000,-4.18877895332533E-15));
#300=VECTOR('',#299,1.00000000000000);
#301=LINE('',#298,#300);
#302=EDGE_CURVE('',#288,#297,#301,.T.);
#303=ORIENTED_EDGE('',*,*,#302,.T.);
#304=CARTESIAN_POINT('',(-0.452500000000002,-2.89500000000000,-0.0775000000000127));
#305=DIRECTION('',(0.00000000000000,1.00000000000000,-6.12323399573677E-17));
#306=DIRECTION('',(1.00000000000000,0.00000000000000,0.00000000000000));
#307=AXIS2_PLACEMENT_3D('',#304,#305,#306);
#308=CIRCLE('',#307,0.0275000000000000);
#309=EDGE_CURVE('',#297,#265,#308,.T.);
#310=ORIENTED_EDGE('',*,*,#309,.T.);
#311=ORIENTED_EDGE('',*,*,#270,.T.);
#312=EDGE_LOOP('',(#295,#303,#310,#311));
#313=FACE_OUTER_BOUND('',#312,.T.);
#314=CARTESIAN_POINT('',(-0.452500000000000,0.105000000000000,-0.0775000000000001));
#315=DIRECTION('',(7.40148683083438E-16,1.00000000000000,4.18877895332533E-15));
#316=DIRECTION('',(1.00000000000000,-7.40148683083438E-16,-3.10031922603136E-30));
#317=AXIS2_PLACEMENT_3D('',#314,#315,#316);
#318=CYLINDRICAL_SURFACE('',#317,0.0275000000000000);
#319=ADVANCED_FACE('',(#313),#318,.T.);
#320=CARTESIAN_POINT('',(0.452500000000003,3.10500000000000,-0.104999999999987));
#321=VERTEX_POINT('',#320);
#322=CARTESIAN_POINT('',(-0.452499999999997,3.10500000000000,-0.104999999999987));
#323=DIRECTION('',(1.00000000000000,0.00000000000000,0.00000000000000));
#324=VECTOR('',#323,1.00000000000000);
#325=LINE('',#322,#324);
#326=EDGE_CURVE('',#288,#321,#325,.T.);
#327=ORIENTED_EDGE('',*,*,#326,.T.);
#328=CARTESIAN_POINT('',(0.452499999999998,-2.89500000000000,-0.105000000000013));
#329=VERTEX_POINT('',#328);
#330=CARTESIAN_POINT('',(0.452500000000001,0.105000000000000,-0.105000000000000));
#331=DIRECTION('',(7.40148683083438E-16,1.00000000000000,4.18877895332533E-15));
#332=VECTOR('',#331,1.00000000000000);
#333=LINE('',#330,#332);
#334=EDGE_CURVE('',#329,#321,#333,.T.);
#335=ORIENTED_EDGE('',*,*,#334,.F.);
#336=CARTESIAN_POINT('',(-0.452500000000002,-2.89500000000000,-0.105000000000013));
#337=DIRECTION('',(-1.00000000000000,-0.00000000000000,-0.00000000000000));
#338=VECTOR('',#337,1.00000000000000);
#339=LINE('',#336,#338);
#340=EDGE_CURVE('',#329,#297,#339,.T.);
#341=ORIENTED_EDGE('',*,*,#340,.T.);
#342=ORIENTED_EDGE('',*,*,#302,.F.);
#343=EDGE_LOOP('',(#327,#335,#341,#342));
#344=FACE_OUTER_BOUND('',#343,.T.);
#345=CARTESIAN_POINT('',(4.44089209850063E-16,0.105000000000000,-0.105000000000000));
#346=DIRECTION('',(0.00000000000000,4.18877895332533E-15,-1.00000000000000));
#347=DIRECTION('',(-1.00000000000000,-0.00000000000000,-0.00000000000000));
#348=AXIS2_PLACEMENT_3D('',#345,#346,#347);
#349=PLANE('',#348);
#350=ADVANCED_FACE('',(#344),#349,.T.);
#351=CARTESIAN_POINT('',(0.452500000000003,3.10500000000000,-0.0499999999999873));
#352=VERTEX_POINT('',#351);
#353=CARTESIAN_POINT('',(0.452500000000003,3.10500000000000,-0.0774999999999876));
#354=DIRECTION('',(0.00000000000000,-1.00000000000000,6.12323399573677E-17));
#355=DIRECTION('',(1.00000000000000,0.00000000000000,0.00000000000000));
#356=AXIS2_PLACEMENT_3D('',#353,#354,#355);
#357=CIRCLE('',#356,0.0275000000000000);
#358=EDGE_CURVE('',#321,#352,#357,.T.);
#359=ORIENTED_EDGE('',*,*,#358,.T.);
#360=CARTESIAN_POINT('',(0.452499999999998,-2.89500000000000,-0.0500000000000124));
#361=VERTEX_POINT('',#360);
#362=CARTESIAN_POINT('',(0.452500000000001,0.105000000000000,-0.0499999999999998));
#363=DIRECTION('',(-7.40148683083438E-16,-1.00000000000000,-4.18877895332533E-15));
#364=VECTOR('',#363,1.00000000000000);
#365=LINE('',#362,#364);
#366=EDGE_CURVE('',#352,#361,#365,.T.);
#367=ORIENTED_EDGE('',*,*,#366,.T.);
#368=CARTESIAN_POINT('',(0.452499999999998,-2.89500000000000,-0.0775000000000127));
#369=DIRECTION('',(0.00000000000000,1.00000000000000,-6.12323399573677E-17));
#370=DIRECTION('',(1.00000000000000,0.00000000000000,0.00000000000000));
#371=AXIS2_PLACEMENT_3D('',#368,#369,#370);
#372=CIRCLE('',#371,0.0275000000000000);
#373=EDGE_CURVE('',#361,#329,#372,.T.);
#374=ORIENTED_EDGE('',*,*,#373,.T.);
#375=ORIENTED_EDGE('',*,*,#334,.T.);
#376=EDGE_LOOP('',(#359,#367,#374,#375));
#377=FACE_OUTER_BOUND('',#376,.T.);
#378=CARTESIAN_POINT('',(0.452500000000001,0.105000000000000,-0.0775000000000001));
#379=DIRECTION('',(7.40148683083438E-16,1.00000000000000,4.18877895332533E-15));
#380=DIRECTION('',(-1.00000000000000,0.00000000000000,0.00000000000000));
#381=AXIS2_PLACEMENT_3D('',#378,#379,#380);
#382=CYLINDRICAL_SURFACE('',#381,0.0275000000000000);
#383=ADVANCED_FACE('',(#377),#382,.T.);
#384=CARTESIAN_POINT('',(0.0275000000000025,3.10500000000000,-0.0499999999999874));
#385=VERTEX_POINT('',#384);
#386=CARTESIAN_POINT('',(0.0275000000000025,3.10500000000000,-0.0499999999999874));
#387=DIRECTION('',(-1.00000000000000,-8.61696913538415E-61,-3.75516611270273E-16));
#388=VECTOR('',#387,1.00000000000000);
#389=LINE('',#386,#388);
#390=EDGE_CURVE('',#352,#385,#389,.T.);
#391=ORIENTED_EDGE('',*,*,#390,.T.);
#392=CARTESIAN_POINT('',(0.0274999999999981,-2.89500000000000,-0.0500000000000126));
#393=VERTEX_POINT('',#392);
#394=CARTESIAN_POINT('',(0.0275000000000003,0.105000000000000,-0.0500000000000000));
#395=DIRECTION('',(-7.40148683083438E-16,-1.00000000000000,-4.18877895332533E-15));
#396=VECTOR('',#395,1.00000000000000);
#397=LINE('',#394,#396);
#398=EDGE_CURVE('',#385,#393,#397,.T.);
#399=ORIENTED_EDGE('',*,*,#398,.T.);
#400=CARTESIAN_POINT('',(0.0274999999999981,-2.89500000000000,-0.0500000000000126));
#401=DIRECTION('',(1.00000000000000,8.61696913538415E-61,3.75516611270273E-16));
#402=VECTOR('',#401,1.00000000000000);
#403=LINE('',#400,#402);
#404=EDGE_CURVE('',#393,#361,#403,.T.);
#405=ORIENTED_EDGE('',*,*,#404,.T.);
#406=ORIENTED_EDGE('',*,*,#366,.F.);
#407=EDGE_LOOP('',(#391,#399,#405,#406));
#408=FACE_OUTER_BOUND('',#407,.T.);
#409=CARTESIAN_POINT('',(0.240000000000000,0.105000000000000,-0.0499999999999999));
#410=DIRECTION('',(-3.75516611270273E-16,-4.18877895332533E-15,1.00000000000000));
#411=DIRECTION('',(1.00000000000000,0.00000000000000,3.75516611270273E-16));
#412=AXIS2_PLACEMENT_3D('',#409,#410,#411);
#413=PLANE('',#412);
#414=ADVANCED_FACE('',(#408),#413,.T.);
#415=CARTESIAN_POINT('',(0.0275000000000025,3.10500000000000,0.0500000000000126));
#416=VERTEX_POINT('',#415);
#417=CARTESIAN_POINT('',(0.0275000000000025,3.10500000000000,0.0500000000000126));
#418=DIRECTION('',(0.00000000000000,1.38777878078145E-16,1.00000000000000));
#419=VECTOR('',#418,1.00000000000000);
#420=LINE('',#417,#419);
#421=EDGE_CURVE('',#385,#416,#420,.T.);
#422=ORIENTED_EDGE('',*,*,#421,.T.);
#423=CARTESIAN_POINT('',(0.0274999999999981,-2.89500000000000,0.0499999999999874));
#424=VERTEX_POINT('',#423);
#425=CARTESIAN_POINT('',(0.0275000000000003,0.105000000000000,0.0500000000000000));
#426=DIRECTION('',(-7.40148683083438E-16,-1.00000000000000,-4.18877895332533E-15));
#427=VECTOR('',#426,1.00000000000000);
#428=LINE('',#425,#427);
#429=EDGE_CURVE('',#416,#424,#428,.T.);
#430=ORIENTED_EDGE('',*,*,#429,.T.);
#431=CARTESIAN_POINT('',(0.0274999999999981,-2.89500000000000,0.0499999999999874));
#432=DIRECTION('',(0.00000000000000,-1.38777878078145E-16,-1.00000000000000));
#433=VECTOR('',#432,1.00000000000000);
#434=LINE('',#431,#433);
#435=EDGE_CURVE('',#424,#393,#434,.T.);
#436=ORIENTED_EDGE('',*,*,#435,.T.);
#437=ORIENTED_EDGE('',*,*,#398,.F.);
#438=EDGE_LOOP('',(#422,#430,#436,#437));
#439=FACE_OUTER_BOUND('',#438,.T.);
#440=CARTESIAN_POINT('',(0.0275000000000003,0.105000000000000,0.00000000000000));
#441=DIRECTION('',(1.00000000000000,-7.40148683083438E-16,1.02716263700653E-31));
#442=DIRECTION('',(0.00000000000000,-1.38777878078145E-16,-1.00000000000000));
#443=AXIS2_PLACEMENT_3D('',#440,#441,#442);
#444=PLANE('',#443);
#445=ADVANCED_FACE('',(#439),#444,.T.);
#446=CARTESIAN_POINT('',(0.220379366208418,3.10500000000000,0.0350818871487971));
#447=DIRECTION('',(0.997022285498735,-1.76953178451787E-46,-0.0771139560577718));
#448=VECTOR('',#447,1.00000000000000);
#449=LINE('',#446,#448);
#450=EDGE_CURVE('',#416,#25,#449,.T.);
#451=ORIENTED_EDGE('',*,*,#450,.T.);
#452=ORIENTED_EDGE('',*,*,#56,.F.);
#453=CARTESIAN_POINT('',(0.220379366208414,-2.89500000000000,0.0350818871487720));
#454=DIRECTION('',(-0.997022285498735,1.76953178451787E-46,0.0771139560577718));
#455=VECTOR('',#454,1.00000000000000);
#456=LINE('',#453,#455);
#457=EDGE_CURVE('',#44,#424,#456,.T.);
#458=ORIENTED_EDGE('',*,*,#457,.T.);
#459=ORIENTED_EDGE('',*,*,#429,.F.);
#460=EDGE_LOOP('',(#451,#452,#458,#459));
#461=FACE_OUTER_BOUND('',#460,.T.);
#462=CARTESIAN_POINT('',(0.123939683104208,0.105000000000000,0.0425409435743922));
#463=DIRECTION('',(-0.0771139560577718,4.23338175851693E-15,-0.997022285498735));
#464=DIRECTION('',(-0.997022285498735,0.00000000000000,0.0771139560577718));
#465=AXIS2_PLACEMENT_3D('',#462,#463,#464);
#466=PLANE('',#465);
#467=ADVANCED_FACE('',(#461),#466,.T.);
#468=ORIENTED_EDGE('',*,*,#33,.F.);
#469=ORIENTED_EDGE('',*,*,#450,.F.);
#470=ORIENTED_EDGE('',*,*,#421,.F.);
#471=ORIENTED_EDGE('',*,*,#390,.F.);
#472=ORIENTED_EDGE('',*,*,#358,.F.);
#473=ORIENTED_EDGE('',*,*,#326,.F.);
#474=ORIENTED_EDGE('',*,*,#294,.F.);
#475=ORIENTED_EDGE('',*,*,#262,.F.);
#476=ORIENTED_EDGE('',*,*,#231,.F.);
#477=ORIENTED_EDGE('',*,*,#200,.F.);
#478=ORIENTED_EDGE('',*,*,#168,.F.);
#479=ORIENTED_EDGE('',*,*,#136,.F.);
#480=ORIENTED_EDGE('',*,*,#104,.F.);
#481=ORIENTED_EDGE('',*,*,#72,.F.);
#482=EDGE_LOOP('',(#468,#469,#470,#471,#472,#473,#474,#475,#476,#477,#478,#479,#480,#481));
#483=FACE_OUTER_BOUND('',#482,.T.);
#484=CARTESIAN_POINT('',(0.160138318157375,3.10500000000000,0.0397411867450529));
#485=DIRECTION('',(7.42491955125627E-16,1.00000000000000,4.18876256678224E-15));
#486=DIRECTION('',(-1.00000000000000,7.42491955125627E-16,1.70379420472126E-60));
#487=AXIS2_PLACEMENT_3D('',#484,#485,#486);
#488=PLANE('',#487);
#489=ADVANCED_FACE('',(#483),#488,.T.);
#490=ORIENTED_EDGE('',*,*,#435,.F.);
#491=ORIENTED_EDGE('',*,*,#457,.F.);
#492=ORIENTED_EDGE('',*,*,#50,.F.);
#493=ORIENTED_EDGE('',*,*,#86,.F.);
#494=ORIENTED_EDGE('',*,*,#119,.F.);
#495=ORIENTED_EDGE('',*,*,#150,.F.);
#496=ORIENTED_EDGE('',*,*,#183,.F.);
#497=ORIENTED_EDGE('',*,*,#214,.F.);
#498=ORIENTED_EDGE('',*,*,#245,.F.);
#499=ORIENTED_EDGE('',*,*,#276,.F.);
#500=ORIENTED_EDGE('',*,*,#309,.F.);
#501=ORIENTED_EDGE('',*,*,#340,.F.);
#502=ORIENTED_EDGE('',*,*,#373,.F.);
#503=ORIENTED_EDGE('',*,*,#404,.F.);
#504=EDGE_LOOP('',(#490,#491,#492,#493,#494,#495,#496,#497,#498,#499,#500,#501,#502,#503));
#505=FACE_OUTER_BOUND('',#504,.T.);
#506=CARTESIAN_POINT('',(0.160138318157370,-2.89500000000000,0.0397411867450278));
#507=DIRECTION('',(7.42491955125627E-16,1.00000000000000,4.18876256678224E-15));
#508=DIRECTION('',(-1.00000000000000,7.42491955125627E-16,1.70379420472126E-60));
#509=AXIS2_PLACEMENT_3D('',#506,#507,#508);
#510=PLANE('',#509);
#511=ADVANCED_FACE('',(#505),#510,.F.);
#512=CLOSED_SHELL('',(#65,#96,#129,#160,#193,#224,#255,#286,#319,#350,#383,#414,#445,#467,#489,#511));
#513=MANIFOLD_SOLID_BREP('',#512);
#514=COLOUR_RGB('',1.00000000000000,0.00000000000000,0.00000000000000);
#515=FILL_AREA_STYLE_COLOUR('',#514);
#516=FILL_AREA_STYLE('',(#515));
#517=SURFACE_STYLE_FILL_AREA(#516);
#518=SURFACE_SIDE_STYLE('',(#517));
#519=SURFACE_STYLE_USAGE(.BOTH.,#518);
#520=PRESENTATION_STYLE_ASSIGNMENT((#519));
#521=STYLED_ITEM('',(#520),#513);
#522=ADVANCED_BREP_SHAPE_REPRESENTATION('',(#513,#23),#18);
#523=PRODUCT('','','',(#2));
#524=PRODUCT_DEFINITION_FORMATION_WITH_SPECIFIED_SOURCE('','',#523,.NOT_KNOWN.);
#525=PRODUCT_CATEGORY('part','');
#526=PRODUCT_RELATED_PRODUCT_CATEGORY('detail','',(#523));
#527=PRODUCT_CATEGORY_RELATIONSHIP('','',#525,#526);
#528=PRODUCT_DEFINITION('','',#524,#1);
#529=PRODUCT_DEFINITION_SHAPE('NONE','NONE',#528);
#530=SHAPE_DEFINITION_REPRESENTATION(#529,#522);
#531=PRESENTATION_LAYER_ASSIGNMENT('1','Unnamed [1]',(#513));
ENDSEC;
END-ISO-10303-21;
