ISO-10303-21;
HEADER;
FILE_DESCRIPTION(('', 'CAx-IF Rec.Pracs.---Representation and Presentation of Product Manufacturing Information (PMI)---4.0---2014-10-13'),'2;1');
FILE_NAME('C:/Program Files/Kubotek/KeyCreatorPro.2021.SP1/STEP/SG2593.STP', '2021-04-14T12:31:55',(''), (''), 'Kubotek Kosmos Version 3.0.7268.7268', 'KeyCreator Pro', '');
FILE_SCHEMA(('AP242_MANAGED_MODEL_BASED_3D_ENGINEERING_MIM_LF  { 1 0 10303 442 1 1 4 }'));
ENDSEC;
DATA;
#1=PRODUCT_DEFINITION_CONTEXT('',#4,'design');
#2=PRODUCT_CONTEXT('',#4,'mechanical');
#3=APPLICATION_PROTOCOL_DEFINITION('international standard','ap242_managed_model_based_3d_engineering',2011,#4);
#4=APPLICATION_CONTEXT('managed model based 3d engineering');
#10=DIMENSIONAL_EXPONENTS(1.0,0.0,0.0,0.0,0.0,0.0,0.0);
#11=DIMENSIONAL_EXPONENTS(0.0,0.0,0.0,0.0,0.0,0.0,0.0);
#12=(LENGTH_UNIT()NAMED_UNIT(#10)SI_UNIT(.MILLI.,.METRE.));
#13=(NAMED_UNIT(#11)PLANE_ANGLE_UNIT()SI_UNIT($,.RADIAN.));
#14=(NAMED_UNIT(#11)SI_UNIT($,.STERADIAN.)SOLID_ANGLE_UNIT());
#15=LENGTH_MEASURE_WITH_UNIT(LENGTH_MEASURE(25.4),#12);
#16= (CONVERSION_BASED_UNIT('INCH',#15)LENGTH_UNIT()NAMED_UNIT(#10));
#17=UNCERTAINTY_MEASURE_WITH_UNIT(LENGTH_MEASURE(1.0E-006),#16,'','');
#18=(GEOMETRIC_REPRESENTATION_CONTEXT(3)GLOBAL_UNCERTAINTY_ASSIGNED_CONTEXT((#17))GLOBAL_UNIT_ASSIGNED_CONTEXT((#16,#13,#14))REPRESENTATION_CONTEXT('NONE','WORKSPACE'));
#20=CARTESIAN_POINT('',(0.00000000000000,0.00000000000000,0.00000000000000));
#21=DIRECTION('',(0.00000000000000,0.00000000000000,1.00000000000000));
#22=DIRECTION('',(1.00000000000000,0.00000000000000,0.00000000000000));
#23=AXIS2_PLACEMENT_3D('',#20,#21,#22);
#24=CARTESIAN_POINT('',(-0.705486229875441,-2.66545974486293,-0.110641835607085));
#25=VERTEX_POINT('',#24);
#26=CARTESIAN_POINT('',(-0.705486229875503,3.33454025513707,-0.110641835607097));
#27=VERTEX_POINT('',#26);
#28=CARTESIAN_POINT('',(-0.705486229875472,0.334540255137072,-0.110641835607091));
#29=DIRECTION('',(-1.03435778460910E-14,1.00000000000000,-1.97064586870967E-15));
#30=VECTOR('',#29,1.00000000000000);
#31=LINE('',#28,#30);
#32=EDGE_CURVE('',#25,#27,#31,.T.);
#33=ORIENTED_EDGE('',*,*,#32,.F.);
#34=CARTESIAN_POINT('',(-0.759401956945507,-2.66545974486293,-0.121494175937968));
#35=VERTEX_POINT('',#34);
#36=CARTESIAN_POINT('',(-0.732500000000006,-2.66545974486293,-0.115790255137103));
#37=DIRECTION('',(2.15391492360708E-17,-1.00000000000000,-1.07009074183631E-16));
#38=DIRECTION('',(-0.197325751436393,-1.09155288041632E-16,0.980337976322484));
#39=AXIS2_PLACEMENT_3D('',#36,#37,#38);
#40=CIRCLE('',#39,0.0275000000000000);
#41=EDGE_CURVE('',#35,#25,#40,.T.);
#42=ORIENTED_EDGE('',*,*,#41,.F.);
#43=CARTESIAN_POINT('',(-0.759401956945569,3.33454025513707,-0.121494175937980));
#44=VERTEX_POINT('',#43);
#45=CARTESIAN_POINT('',(-0.759401956945538,0.334540255137072,-0.121494175937974));
#46=DIRECTION('',(1.03435778460910E-14,-1.00000000000000,1.97064586870967E-15));
#47=VECTOR('',#46,1.00000000000000);
#48=LINE('',#45,#47);
#49=EDGE_CURVE('',#44,#35,#48,.T.);
#50=ORIENTED_EDGE('',*,*,#49,.F.);
#51=CARTESIAN_POINT('',(-0.732500000000069,3.33454025513707,-0.115790255137114));
#52=DIRECTION('',(-2.15391492360708E-17,1.00000000000000,1.07009074183631E-16));
#53=DIRECTION('',(-0.197325751436393,-1.09155288041632E-16,0.980337976322484));
#54=AXIS2_PLACEMENT_3D('',#51,#52,#53);
#55=CIRCLE('',#54,0.0275000000000000);
#56=EDGE_CURVE('',#27,#44,#55,.T.);
#57=ORIENTED_EDGE('',*,*,#56,.F.);
#58=EDGE_LOOP('',(#33,#42,#50,#57));
#59=FACE_OUTER_BOUND('',#58,.T.);
#60=CARTESIAN_POINT('',(-0.732500000000037,0.334540255137072,-0.115790255137108));
#61=DIRECTION('',(-1.03435778460910E-14,1.00000000000000,-1.97064586870967E-15));
#62=DIRECTION('',(-0.197325751436393,-1.09155288041632E-16,0.980337976322484));
#63=AXIS2_PLACEMENT_3D('',#60,#61,#62);
#64=CYLINDRICAL_SURFACE('',#63,0.0275000000000000);
#65=ADVANCED_FACE('',(#59),#64,.T.);
#66=ORIENTED_EDGE('',*,*,#49,.T.);
#67=CARTESIAN_POINT('',(-0.804347589395099,-2.66545974486293,0.0904872858074076));
#68=VERTEX_POINT('',#67);
#69=CARTESIAN_POINT('',(-0.804347589395099,-2.66545974486293,0.0904872858074076));
#70=DIRECTION('',(0.207415301849620,-8.33160658535923E-45,-0.978252979836316));
#71=VECTOR('',#70,1.00000000000000);
#72=LINE('',#69,#71);
#73=EDGE_CURVE('',#68,#35,#72,.T.);
#74=ORIENTED_EDGE('',*,*,#73,.F.);
#75=CARTESIAN_POINT('',(-0.804347589395161,3.33454025513707,0.0904872858073956));
#76=VERTEX_POINT('',#75);
#77=CARTESIAN_POINT('',(-0.804347589395130,0.334540255137072,0.0904872858074016));
#78=DIRECTION('',(-1.03435778460910E-14,1.00000000000000,-1.97064586870967E-15));
#79=VECTOR('',#78,1.00000000000000);
#80=LINE('',#77,#79);
#81=EDGE_CURVE('',#68,#76,#80,.T.);
#82=ORIENTED_EDGE('',*,*,#81,.T.);
#83=CARTESIAN_POINT('',(-0.804347589395161,3.33454025513707,0.0904872858073956));
#84=DIRECTION('',(-0.207415301849620,8.33160658535923E-45,0.978252979836316));
#85=VECTOR('',#84,1.00000000000000);
#86=LINE('',#83,#85);
#87=EDGE_CURVE('',#44,#76,#86,.T.);
#88=ORIENTED_EDGE('',*,*,#87,.F.);
#89=EDGE_LOOP('',(#66,#74,#82,#88));
#90=FACE_OUTER_BOUND('',#89,.T.);
#91=CARTESIAN_POINT('',(-0.781874773170334,0.334540255137072,-0.0155034450652864));
#92=DIRECTION('',(-0.978252979836316,-1.05273779578046E-14,-0.207415301849620));
#93=DIRECTION('',(0.207415301849620,0.00000000000000,-0.978252979836316));
#94=AXIS2_PLACEMENT_3D('',#91,#92,#93);
#95=PLANE('',#94);
#96=ADVANCED_FACE('',(#90),#95,.T.);
#97=ORIENTED_EDGE('',*,*,#81,.F.);
#98=CARTESIAN_POINT('',(-0.775000000000008,-2.66545974486293,0.126709744862897));
#99=VERTEX_POINT('',#98);
#100=CARTESIAN_POINT('',(-0.775000000000008,-2.66545974486293,0.0967097448628966));
#101=DIRECTION('',(4.01687171151909E-44,-1.00000000000000,6.17093117308440E-59));
#102=DIRECTION('',(1.53625298895859E-15,0.00000000000000,-1.00000000000000));
#103=AXIS2_PLACEMENT_3D('',#100,#101,#102);
#104=CIRCLE('',#103,0.0300000000000000);
#105=EDGE_CURVE('',#99,#68,#104,.T.);
#106=ORIENTED_EDGE('',*,*,#105,.F.);
#107=CARTESIAN_POINT('',(-0.775000000000070,3.33454025513707,0.126709744862885));
#108=VERTEX_POINT('',#107);
#109=CARTESIAN_POINT('',(-0.775000000000039,0.334540255137072,0.126709744862891));
#110=DIRECTION('',(1.03435778460910E-14,-1.00000000000000,1.97064586870967E-15));
#111=VECTOR('',#110,1.00000000000000);
#112=LINE('',#109,#111);
#113=EDGE_CURVE('',#108,#99,#112,.T.);
#114=ORIENTED_EDGE('',*,*,#113,.F.);
#115=CARTESIAN_POINT('',(-0.775000000000070,3.33454025513707,0.0967097448628846));
#116=DIRECTION('',(-4.01687171151909E-44,1.00000000000000,-6.17093117308440E-59));
#117=DIRECTION('',(1.53625298895859E-15,0.00000000000000,-1.00000000000000));
#118=AXIS2_PLACEMENT_3D('',#115,#116,#117);
#119=CIRCLE('',#118,0.0300000000000000);
#120=EDGE_CURVE('',#76,#108,#119,.T.);
#121=ORIENTED_EDGE('',*,*,#120,.F.);
#122=EDGE_LOOP('',(#97,#106,#114,#121));
#123=FACE_OUTER_BOUND('',#122,.T.);
#124=CARTESIAN_POINT('',(-0.775000000000039,0.334540255137072,0.0967097448628906));
#125=DIRECTION('',(-1.03435778460910E-14,1.00000000000000,-1.97064586870967E-15));
#126=DIRECTION('',(1.53625298895861E-15,-1.97064586870965E-15,-1.00000000000000));
#127=AXIS2_PLACEMENT_3D('',#124,#125,#126);
#128=CYLINDRICAL_SURFACE('',#127,0.0300000000000000);
#129=ADVANCED_FACE('',(#123),#128,.T.);
#130=ORIENTED_EDGE('',*,*,#113,.T.);
#131=CARTESIAN_POINT('',(-0.595000000000008,-2.66545974486293,0.126709744862897));
#132=VERTEX_POINT('',#131);
#133=CARTESIAN_POINT('',(-0.775000000000008,-2.66545974486293,0.126709744862897));
#134=DIRECTION('',(-1.00000000000000,4.01687171151909E-44,-1.53625298895859E-15));
#135=VECTOR('',#134,1.00000000000000);
#136=LINE('',#133,#135);
#137=EDGE_CURVE('',#132,#99,#136,.T.);
#138=ORIENTED_EDGE('',*,*,#137,.F.);
#139=CARTESIAN_POINT('',(-0.595000000000070,3.33454025513707,0.126709744862885));
#140=VERTEX_POINT('',#139);
#141=CARTESIAN_POINT('',(-0.595000000000039,0.334540255137072,0.126709744862891));
#142=DIRECTION('',(-1.03435778460910E-14,1.00000000000000,-1.97064586870967E-15));
#143=VECTOR('',#142,1.00000000000000);
#144=LINE('',#141,#143);
#145=EDGE_CURVE('',#132,#140,#144,.T.);
#146=ORIENTED_EDGE('',*,*,#145,.T.);
#147=CARTESIAN_POINT('',(-0.775000000000070,3.33454025513707,0.126709744862885));
#148=DIRECTION('',(1.00000000000000,-4.01687171151909E-44,1.53625298895859E-15));
#149=VECTOR('',#148,1.00000000000000);
#150=LINE('',#147,#149);
#151=EDGE_CURVE('',#108,#140,#150,.T.);
#152=ORIENTED_EDGE('',*,*,#151,.F.);
#153=EDGE_LOOP('',(#130,#138,#146,#152));
#154=FACE_OUTER_BOUND('',#153,.T.);
#155=CARTESIAN_POINT('',(-0.685000000000039,0.334540255137072,0.126709744862891));
#156=DIRECTION('',(-1.53625298895859E-15,1.97064586870965E-15,1.00000000000000));
#157=DIRECTION('',(-1.00000000000000,0.00000000000000,-1.53625298895859E-15));
#158=AXIS2_PLACEMENT_3D('',#155,#156,#157);
#159=PLANE('',#158);
#160=ADVANCED_FACE('',(#154),#159,.T.);
#161=ORIENTED_EDGE('',*,*,#145,.F.);
#162=CARTESIAN_POINT('',(-0.565000000000007,-2.66545974486293,0.0967097448628969));
#163=VERTEX_POINT('',#162);
#164=CARTESIAN_POINT('',(-0.595000000000007,-2.66545974486293,0.0967097448628969));
#165=DIRECTION('',(6.18772802737889E-15,-1.00000000000000,6.12649568742167E-15));
#166=DIRECTION('',(-0.707106781186539,-8.70747109378367E-15,-0.707106781186556));
#167=AXIS2_PLACEMENT_3D('',#164,#165,#166);
#168=CIRCLE('',#167,0.0300000000000000);
#169=EDGE_CURVE('',#163,#132,#168,.T.);
#170=ORIENTED_EDGE('',*,*,#169,.F.);
#171=CARTESIAN_POINT('',(-0.565000000000070,3.33454025513707,0.0967097448628849));
#172=VERTEX_POINT('',#171);
#173=CARTESIAN_POINT('',(-0.565000000000039,0.334540255137072,0.0967097448628909));
#174=DIRECTION('',(1.03435778460910E-14,-1.00000000000000,1.97064586870967E-15));
#175=VECTOR('',#174,1.00000000000000);
#176=LINE('',#173,#175);
#177=EDGE_CURVE('',#172,#163,#176,.T.);
#178=ORIENTED_EDGE('',*,*,#177,.F.);
#179=CARTESIAN_POINT('',(-0.595000000000069,3.33454025513707,0.0967097448628849));
#180=DIRECTION('',(-6.18772802737889E-15,1.00000000000000,-6.12649568742167E-15));
#181=DIRECTION('',(-0.707106781186539,-8.70747109378367E-15,-0.707106781186556));
#182=AXIS2_PLACEMENT_3D('',#179,#180,#181);
#183=CIRCLE('',#182,0.0300000000000000);
#184=EDGE_CURVE('',#140,#172,#183,.T.);
#185=ORIENTED_EDGE('',*,*,#184,.F.);
#186=EDGE_LOOP('',(#161,#170,#178,#185));
#187=FACE_OUTER_BOUND('',#186,.T.);
#188=CARTESIAN_POINT('',(-0.595000000000038,0.334540255137072,0.0967097448628909));
#189=DIRECTION('',(-1.03435778460910E-14,1.00000000000000,-1.97064586870967E-15));
#190=DIRECTION('',(-0.707106781186539,-8.70747109378367E-15,-0.707106781186556));
#191=AXIS2_PLACEMENT_3D('',#188,#189,#190);
#192=CYLINDRICAL_SURFACE('',#191,0.0300000000000000);
#193=ADVANCED_FACE('',(#187),#192,.T.);
#194=ORIENTED_EDGE('',*,*,#177,.T.);
#195=CARTESIAN_POINT('',(-0.565000000000007,-2.66545974486293,-0.395790255137103));
#196=VERTEX_POINT('',#195);
#197=CARTESIAN_POINT('',(-0.565000000000007,-2.66545974486293,0.0967097448628969));
#198=DIRECTION('',(-1.53625298895859E-15,-0.00000000000000,1.00000000000000));
#199=VECTOR('',#198,1.00000000000000);
#200=LINE('',#197,#199);
#201=EDGE_CURVE('',#196,#163,#200,.T.);
#202=ORIENTED_EDGE('',*,*,#201,.F.);
#203=CARTESIAN_POINT('',(-0.565000000000069,3.33454025513707,-0.395790255137115));
#204=VERTEX_POINT('',#203);
#205=CARTESIAN_POINT('',(-0.565000000000038,0.334540255137072,-0.395790255137109));
#206=DIRECTION('',(-1.03435778460910E-14,1.00000000000000,-1.97064586870967E-15));
#207=VECTOR('',#206,1.00000000000000);
#208=LINE('',#205,#207);
#209=EDGE_CURVE('',#196,#204,#208,.T.);
#210=ORIENTED_EDGE('',*,*,#209,.T.);
#211=CARTESIAN_POINT('',(-0.565000000000070,3.33454025513707,0.0967097448628849));
#212=DIRECTION('',(1.53625298895859E-15,0.00000000000000,-1.00000000000000));
#213=VECTOR('',#212,1.00000000000000);
#214=LINE('',#211,#213);
#215=EDGE_CURVE('',#172,#204,#214,.T.);
#216=ORIENTED_EDGE('',*,*,#215,.F.);
#217=EDGE_LOOP('',(#194,#202,#210,#216));
#218=FACE_OUTER_BOUND('',#217,.T.);
#219=CARTESIAN_POINT('',(-0.565000000000038,0.334540255137072,-0.149540255137109));
#220=DIRECTION('',(1.00000000000000,1.03435778460910E-14,1.53625298895859E-15));
#221=DIRECTION('',(-1.53625298895859E-15,-0.00000000000000,1.00000000000000));
#222=AXIS2_PLACEMENT_3D('',#219,#220,#221);
#223=PLANE('',#222);
#224=ADVANCED_FACE('',(#218),#223,.T.);
#225=ORIENTED_EDGE('',*,*,#209,.F.);
#226=CARTESIAN_POINT('',(-0.620000000000007,-2.66545974486293,-0.395790255137103));
#227=VERTEX_POINT('',#226);
#228=CARTESIAN_POINT('',(-0.592500000000006,-2.66545974486293,-0.395790255137103));
#229=DIRECTION('',(4.01687171151909E-44,-1.00000000000000,6.17093117308440E-59));
#230=DIRECTION('',(1.53625298895859E-15,0.00000000000000,-1.00000000000000));
#231=AXIS2_PLACEMENT_3D('',#228,#229,#230);
#232=CIRCLE('',#231,0.0275000000000000);
#233=EDGE_CURVE('',#227,#196,#232,.T.);
#234=ORIENTED_EDGE('',*,*,#233,.F.);
#235=CARTESIAN_POINT('',(-0.620000000000069,3.33454025513707,-0.395790255137115));
#236=VERTEX_POINT('',#235);
#237=CARTESIAN_POINT('',(-0.620000000000038,0.334540255137072,-0.395790255137109));
#238=DIRECTION('',(1.03435778460910E-14,-1.00000000000000,1.97064586870967E-15));
#239=VECTOR('',#238,1.00000000000000);
#240=LINE('',#237,#239);
#241=EDGE_CURVE('',#236,#227,#240,.T.);
#242=ORIENTED_EDGE('',*,*,#241,.F.);
#243=CARTESIAN_POINT('',(-0.592500000000068,3.33454025513707,-0.395790255137115));
#244=DIRECTION('',(-4.01687171151909E-44,1.00000000000000,-6.17093117308440E-59));
#245=DIRECTION('',(1.53625298895859E-15,0.00000000000000,-1.00000000000000));
#246=AXIS2_PLACEMENT_3D('',#243,#244,#245);
#247=CIRCLE('',#246,0.0275000000000000);
#248=EDGE_CURVE('',#204,#236,#247,.T.);
#249=ORIENTED_EDGE('',*,*,#248,.F.);
#250=EDGE_LOOP('',(#225,#234,#242,#249));
#251=FACE_OUTER_BOUND('',#250,.T.);
#252=CARTESIAN_POINT('',(-0.592500000000037,0.334540255137072,-0.395790255137109));
#253=DIRECTION('',(-1.03435778460910E-14,1.00000000000000,-1.97064586870967E-15));
#254=DIRECTION('',(-1.53625298895861E-15,1.97064586870965E-15,1.00000000000000));
#255=AXIS2_PLACEMENT_3D('',#252,#253,#254);
#256=CYLINDRICAL_SURFACE('',#255,0.0275000000000000);
#257=ADVANCED_FACE('',(#251),#256,.T.);
#258=ORIENTED_EDGE('',*,*,#241,.T.);
#259=CARTESIAN_POINT('',(-0.620000000000007,-2.66545974486293,0.0717097448628968));
#260=VERTEX_POINT('',#259);
#261=CARTESIAN_POINT('',(-0.620000000000007,-2.66545974486293,0.0717097448628968));
#262=DIRECTION('',(1.53625298895859E-15,0.00000000000000,-1.00000000000000));
#263=VECTOR('',#262,1.00000000000000);
#264=LINE('',#261,#263);
#265=EDGE_CURVE('',#260,#227,#264,.T.);
#266=ORIENTED_EDGE('',*,*,#265,.F.);
#267=CARTESIAN_POINT('',(-0.620000000000069,3.33454025513707,0.0717097448628848));
#268=VERTEX_POINT('',#267);
#269=CARTESIAN_POINT('',(-0.620000000000039,0.334540255137072,0.0717097448628908));
#270=DIRECTION('',(1.03435778460910E-14,-1.00000000000000,1.97064586870967E-15));
#271=VECTOR('',#270,1.00000000000000);
#272=LINE('',#269,#271);
#273=EDGE_CURVE('',#268,#260,#272,.T.);
#274=ORIENTED_EDGE('',*,*,#273,.F.);
#275=CARTESIAN_POINT('',(-0.620000000000070,3.33454025513707,0.0717097448628848));
#276=DIRECTION('',(-1.53625298895859E-15,-0.00000000000000,1.00000000000000));
#277=VECTOR('',#276,1.00000000000000);
#278=LINE('',#275,#277);
#279=EDGE_CURVE('',#236,#268,#278,.T.);
#280=ORIENTED_EDGE('',*,*,#279,.F.);
#281=EDGE_LOOP('',(#258,#266,#274,#280));
#282=FACE_OUTER_BOUND('',#281,.T.);
#283=CARTESIAN_POINT('',(-0.620000000000038,0.334540255137072,-0.162040255137109));
#284=DIRECTION('',(-1.00000000000000,-1.03435778460910E-14,-1.53625298895859E-15));
#285=DIRECTION('',(1.53625298895859E-15,0.00000000000000,-1.00000000000000));
#286=AXIS2_PLACEMENT_3D('',#283,#284,#285);
#287=PLANE('',#286);
#288=ADVANCED_FACE('',(#282),#287,.T.);
#289=ORIENTED_EDGE('',*,*,#273,.T.);
#290=CARTESIAN_POINT('',(-0.740239706857444,-2.66545974486293,0.0717097448628967));
#291=VERTEX_POINT('',#290);
#292=CARTESIAN_POINT('',(-0.740239706857442,-2.66545974486293,0.0717097448628967));
#293=DIRECTION('',(1.00000000000000,-4.01687171151909E-44,1.53625298895859E-15));
#294=VECTOR('',#293,1.00000000000000);
#295=LINE('',#292,#294);
#296=EDGE_CURVE('',#291,#260,#295,.T.);
#297=ORIENTED_EDGE('',*,*,#296,.F.);
#298=CARTESIAN_POINT('',(-0.740239706857506,3.33454025513707,0.0717097448628857));
#299=VERTEX_POINT('',#298);
#300=CARTESIAN_POINT('',(-0.740239706857475,0.334540255137072,0.0717097448628917));
#301=DIRECTION('',(1.03435778460910E-14,-1.00000000000000,1.97064586870967E-15));
#302=VECTOR('',#301,1.00000000000000);
#303=LINE('',#300,#302);
#304=EDGE_CURVE('',#299,#291,#303,.T.);
#305=ORIENTED_EDGE('',*,*,#304,.F.);
#306=CARTESIAN_POINT('',(-0.740239706857504,3.33454025513707,0.0717097448628847));
#307=DIRECTION('',(-1.00000000000000,4.01687171151909E-44,-1.53625298895859E-15));
#308=VECTOR('',#307,1.00000000000000);
#309=LINE('',#306,#308);
#310=EDGE_CURVE('',#268,#299,#309,.T.);
#311=ORIENTED_EDGE('',*,*,#310,.F.);
#312=EDGE_LOOP('',(#289,#297,#305,#311));
#313=FACE_OUTER_BOUND('',#312,.T.);
#314=CARTESIAN_POINT('',(-0.680119853428757,0.334540255137072,0.0717097448628908));
#315=DIRECTION('',(1.53625298895859E-15,-1.97064586870965E-15,-1.00000000000000));
#316=DIRECTION('',(1.00000000000000,0.00000000000000,1.53625298895859E-15));
#317=AXIS2_PLACEMENT_3D('',#314,#315,#316);
#318=PLANE('',#317);
#319=ADVANCED_FACE('',(#313),#318,.T.);
#320=ORIENTED_EDGE('',*,*,#304,.T.);
#321=CARTESIAN_POINT('',(-0.705486229875441,-2.66545974486293,-0.110641835607085));
#322=DIRECTION('',(-0.187215255637001,7.52019664333078E-45,0.982318913620608));
#323=VECTOR('',#322,1.00000000000000);
#324=LINE('',#321,#323);
#325=EDGE_CURVE('',#25,#291,#324,.T.);
#326=ORIENTED_EDGE('',*,*,#325,.F.);
#327=ORIENTED_EDGE('',*,*,#32,.T.);
#328=CARTESIAN_POINT('',(-0.705486229875503,3.33454025513707,-0.110641835607097));
#329=DIRECTION('',(0.187215255637001,-7.52019664333078E-45,-0.982318913620608));
#330=VECTOR('',#329,1.00000000000000);
#331=LINE('',#328,#330);
#332=EDGE_CURVE('',#299,#27,#331,.T.);
#333=ORIENTED_EDGE('',*,*,#332,.F.);
#334=EDGE_LOOP('',(#320,#326,#327,#333));
#335=FACE_OUTER_BOUND('',#334,.T.);
#336=CARTESIAN_POINT('',(-0.722862968366474,0.334540255137072,-0.0194660453721003));
#337=DIRECTION('',(0.982318913620608,1.05296271228028E-14,0.187215255637001));
#338=DIRECTION('',(-0.187215255637001,0.00000000000000,0.982318913620608));
#339=AXIS2_PLACEMENT_3D('',#336,#337,#338);
#340=PLANE('',#339);
#341=ADVANCED_FACE('',(#335),#340,.T.);
#342=ORIENTED_EDGE('',*,*,#87,.T.);
#343=ORIENTED_EDGE('',*,*,#120,.T.);
#344=ORIENTED_EDGE('',*,*,#151,.T.);
#345=ORIENTED_EDGE('',*,*,#184,.T.);
#346=ORIENTED_EDGE('',*,*,#215,.T.);
#347=ORIENTED_EDGE('',*,*,#248,.T.);
#348=ORIENTED_EDGE('',*,*,#279,.T.);
#349=ORIENTED_EDGE('',*,*,#310,.T.);
#350=ORIENTED_EDGE('',*,*,#332,.T.);
#351=ORIENTED_EDGE('',*,*,#56,.T.);
#352=EDGE_LOOP('',(#342,#343,#344,#345,#346,#347,#348,#349,#350,#351));
#353=FACE_OUTER_BOUND('',#352,.T.);
#354=CARTESIAN_POINT('',(-0.716340609573908,3.33454025513707,-0.0536888782368103));
#355=DIRECTION('',(-1.03472184201240E-14,1.00000000000000,-1.97202468037134E-15));
#356=DIRECTION('',(-1.53625298895859E-15,1.97202468037132E-15,1.00000000000000));
#357=AXIS2_PLACEMENT_3D('',#354,#355,#356);
#358=PLANE('',#357);
#359=ADVANCED_FACE('',(#353),#358,.T.);
#360=ORIENTED_EDGE('',*,*,#265,.T.);
#361=ORIENTED_EDGE('',*,*,#233,.T.);
#362=ORIENTED_EDGE('',*,*,#201,.T.);
#363=ORIENTED_EDGE('',*,*,#169,.T.);
#364=ORIENTED_EDGE('',*,*,#137,.T.);
#365=ORIENTED_EDGE('',*,*,#105,.T.);
#366=ORIENTED_EDGE('',*,*,#73,.T.);
#367=ORIENTED_EDGE('',*,*,#41,.T.);
#368=ORIENTED_EDGE('',*,*,#325,.T.);
#369=ORIENTED_EDGE('',*,*,#296,.T.);
#370=EDGE_LOOP('',(#360,#361,#362,#363,#364,#365,#366,#367,#368,#369));
#371=FACE_OUTER_BOUND('',#370,.T.);
#372=CARTESIAN_POINT('',(-0.716340609573846,-2.66545974486293,-0.0536888782367983));
#373=DIRECTION('',(-1.03472184201240E-14,1.00000000000000,-1.97202468037134E-15));
#374=DIRECTION('',(-1.53625298895859E-15,1.97202468037132E-15,1.00000000000000));
#375=AXIS2_PLACEMENT_3D('',#372,#373,#374);
#376=PLANE('',#375);
#377=ADVANCED_FACE('',(#371),#376,.F.);
#378=CLOSED_SHELL('',(#65,#96,#129,#160,#193,#224,#257,#288,#319,#341,#359,#377));
#379=MANIFOLD_SOLID_BREP('',#378);
#380=COLOUR_RGB('',1.00000000000000,0.00000000000000,0.00000000000000);
#381=FILL_AREA_STYLE_COLOUR('',#380);
#382=FILL_AREA_STYLE('',(#381));
#383=SURFACE_STYLE_FILL_AREA(#382);
#384=SURFACE_SIDE_STYLE('',(#383));
#385=SURFACE_STYLE_USAGE(.BOTH.,#384);
#386=PRESENTATION_STYLE_ASSIGNMENT((#385));
#387=STYLED_ITEM('',(#386),#379);
#388=ADVANCED_BREP_SHAPE_REPRESENTATION('',(#379,#23),#18);
#389=PRODUCT('','','',(#2));
#390=PRODUCT_DEFINITION_FORMATION_WITH_SPECIFIED_SOURCE('','',#389,.NOT_KNOWN.);
#391=PRODUCT_CATEGORY('part','');
#392=PRODUCT_RELATED_PRODUCT_CATEGORY('detail','',(#389));
#393=PRODUCT_CATEGORY_RELATIONSHIP('','',#391,#392);
#394=PRODUCT_DEFINITION('','',#390,#1);
#395=PRODUCT_DEFINITION_SHAPE('NONE','NONE',#394);
#396=SHAPE_DEFINITION_REPRESENTATION(#395,#388);
#397=PRESENTATION_LAYER_ASSIGNMENT('1','Unnamed [1]',(#379));
ENDSEC;
END-ISO-10303-21;
