ISO-10303-21;
HEADER;
FILE_DESCRIPTION(('', 'CAx-IF Rec.Pracs.---Representation and Presentation of Product Manufacturing Information (PMI)---4.0---2014-10-13'),'2;1');
FILE_NAME('C:/Program Files/Kubotek/KeyCreatorPro.2021.SP1/STEP/SG2513.STP', '2021-04-07T12:11:27',(''), (''), 'Kubotek Kosmos Version 3.0.7268.7268', 'KeyCreator Pro', '');
FILE_SCHEMA(('AP242_MANAGED_MODEL_BASED_3D_ENGINEERING_MIM_LF  { 1 0 10303 442 1 1 4 }'));
ENDSEC;
DATA;
#1=PRODUCT_DEFINITION_CONTEXT('',#4,'design');
#2=PRODUCT_CONTEXT('',#4,'mechanical');
#3=APPLICATION_PROTOCOL_DEFINITION('international standard','ap242_managed_model_based_3d_engineering',2011,#4);
#4=APPLICATION_CONTEXT('managed model based 3d engineering');
#10=DIMENSIONAL_EXPONENTS(1.0,0.0,0.0,0.0,0.0,0.0,0.0);
#11=DIMENSIONAL_EXPONENTS(0.0,0.0,0.0,0.0,0.0,0.0,0.0);
#12=(LENGTH_UNIT()NAMED_UNIT(#10)SI_UNIT(.MILLI.,.METRE.));
#13=(NAMED_UNIT(#11)PLANE_ANGLE_UNIT()SI_UNIT($,.RADIAN.));
#14=(NAMED_UNIT(#11)SI_UNIT($,.STERADIAN.)SOLID_ANGLE_UNIT());
#15=LENGTH_MEASURE_WITH_UNIT(LENGTH_MEASURE(25.4),#12);
#16= (CONVERSION_BASED_UNIT('INCH',#15)LENGTH_UNIT()NAMED_UNIT(#10));
#17=UNCERTAINTY_MEASURE_WITH_UNIT(LENGTH_MEASURE(1.0E-006),#16,'','');
#18=(GEOMETRIC_REPRESENTATION_CONTEXT(3)GLOBAL_UNCERTAINTY_ASSIGNED_CONTEXT((#17))GLOBAL_UNIT_ASSIGNED_CONTEXT((#16,#13,#14))REPRESENTATION_CONTEXT('NONE','WORKSPACE'));
#20=CARTESIAN_POINT('',(0.00000000000000,0.00000000000000,0.00000000000000));
#21=DIRECTION('',(0.00000000000000,0.00000000000000,1.00000000000000));
#22=DIRECTION('',(1.00000000000000,0.00000000000000,0.00000000000000));
#23=AXIS2_PLACEMENT_3D('',#20,#21,#22);
#24=CARTESIAN_POINT('',(-0.569957990940864,-3.51689380781111,0.444469039055536));
#25=VERTEX_POINT('',#24);
#26=CARTESIAN_POINT('',(-0.500000000000000,-3.51689380781111,0.516893807811107));
#27=VERTEX_POINT('',#26);
#28=CARTESIAN_POINT('',(-0.500000000000000,-3.51689380781111,0.446893807811107));
#29=DIRECTION('',(0.00000000000000,1.00000000000000,0.00000000000000));
#30=DIRECTION('',(-1.00000000000000,0.00000000000000,0.00000000000000));
#31=AXIS2_PLACEMENT_3D('',#28,#29,#30);
#32=CIRCLE('',#31,0.0700000000000000);
#33=EDGE_CURVE('',#25,#27,#32,.T.);
#34=ORIENTED_EDGE('',*,*,#33,.T.);
#35=CARTESIAN_POINT('',(-0.500000000000000,2.48310619218889,0.516893807811107));
#36=VERTEX_POINT('',#35);
#37=CARTESIAN_POINT('',(-0.500000000000000,-0.516893807811107,0.516893807811107));
#38=DIRECTION('',(0.00000000000000,1.00000000000000,0.00000000000000));
#39=VECTOR('',#38,1.00000000000000);
#40=LINE('',#37,#39);
#41=EDGE_CURVE('',#27,#36,#40,.T.);
#42=ORIENTED_EDGE('',*,*,#41,.T.);
#43=CARTESIAN_POINT('',(-0.569957990940864,2.48310619218889,0.444469039055536));
#44=VERTEX_POINT('',#43);
#45=CARTESIAN_POINT('',(-0.500000000000000,2.48310619218889,0.446893807811107));
#46=DIRECTION('',(-0.00000000000000,-1.00000000000000,-0.00000000000000));
#47=DIRECTION('',(-1.00000000000000,0.00000000000000,0.00000000000000));
#48=AXIS2_PLACEMENT_3D('',#45,#46,#47);
#49=CIRCLE('',#48,0.0700000000000000);
#50=EDGE_CURVE('',#36,#44,#49,.T.);
#51=ORIENTED_EDGE('',*,*,#50,.T.);
#52=CARTESIAN_POINT('',(-0.569957990940864,-0.516893807811107,0.444469039055536));
#53=DIRECTION('',(0.00000000000000,-1.00000000000000,0.00000000000000));
#54=VECTOR('',#53,1.00000000000000);
#55=LINE('',#52,#54);
#56=EDGE_CURVE('',#44,#25,#55,.T.);
#57=ORIENTED_EDGE('',*,*,#56,.T.);
#58=EDGE_LOOP('',(#34,#42,#51,#57));
#59=FACE_OUTER_BOUND('',#58,.T.);
#60=CARTESIAN_POINT('',(-0.500000000000000,-0.516893807811107,0.446893807811107));
#61=DIRECTION('',(0.00000000000000,-1.00000000000000,0.00000000000000));
#62=DIRECTION('',(0.719249453823574,0.00000000000000,-0.694751914840463));
#63=AXIS2_PLACEMENT_3D('',#60,#61,#62);
#64=CYLINDRICAL_SURFACE('',#63,0.0700000000000000);
#65=ADVANCED_FACE('',(#59),#64,.T.);
#66=CARTESIAN_POINT('',(0.500000000000000,-3.51689380781111,0.516893807811107));
#67=VERTEX_POINT('',#66);
#68=CARTESIAN_POINT('',(0.500000000000000,-3.51689380781111,0.516893807811107));
#69=DIRECTION('',(1.00000000000000,0.00000000000000,0.00000000000000));
#70=VECTOR('',#69,1.00000000000000);
#71=LINE('',#68,#70);
#72=EDGE_CURVE('',#27,#67,#71,.T.);
#73=ORIENTED_EDGE('',*,*,#72,.T.);
#74=CARTESIAN_POINT('',(0.500000000000000,2.48310619218889,0.516893807811107));
#75=VERTEX_POINT('',#74);
#76=CARTESIAN_POINT('',(0.500000000000000,-0.516893807811107,0.516893807811107));
#77=DIRECTION('',(0.00000000000000,-1.00000000000000,0.00000000000000));
#78=VECTOR('',#77,1.00000000000000);
#79=LINE('',#76,#78);
#80=EDGE_CURVE('',#75,#67,#79,.T.);
#81=ORIENTED_EDGE('',*,*,#80,.F.);
#82=CARTESIAN_POINT('',(0.500000000000000,2.48310619218889,0.516893807811107));
#83=DIRECTION('',(-1.00000000000000,0.00000000000000,0.00000000000000));
#84=VECTOR('',#83,1.00000000000000);
#85=LINE('',#82,#84);
#86=EDGE_CURVE('',#75,#36,#85,.T.);
#87=ORIENTED_EDGE('',*,*,#86,.T.);
#88=ORIENTED_EDGE('',*,*,#41,.F.);
#89=EDGE_LOOP('',(#73,#81,#87,#88));
#90=FACE_OUTER_BOUND('',#89,.T.);
#91=CARTESIAN_POINT('',(0.00000000000000,-0.516893807811107,0.516893807811107));
#92=DIRECTION('',(0.00000000000000,0.00000000000000,1.00000000000000));
#93=DIRECTION('',(-1.00000000000000,0.00000000000000,0.00000000000000));
#94=AXIS2_PLACEMENT_3D('',#91,#92,#93);
#95=PLANE('',#94);
#96=ADVANCED_FACE('',(#90),#95,.T.);
#97=CARTESIAN_POINT('',(0.569957990940864,-3.51689380781111,0.444469039055536));
#98=VERTEX_POINT('',#97);
#99=CARTESIAN_POINT('',(0.500000000000000,-3.51689380781111,0.446893807811107));
#100=DIRECTION('',(0.00000000000000,1.00000000000000,0.00000000000000));
#101=DIRECTION('',(-1.00000000000000,0.00000000000000,0.00000000000000));
#102=AXIS2_PLACEMENT_3D('',#99,#100,#101);
#103=CIRCLE('',#102,0.0700000000000000);
#104=EDGE_CURVE('',#67,#98,#103,.T.);
#105=ORIENTED_EDGE('',*,*,#104,.T.);
#106=CARTESIAN_POINT('',(0.569957990940864,2.48310619218889,0.444469039055536));
#107=VERTEX_POINT('',#106);
#108=CARTESIAN_POINT('',(0.569957990940864,-0.516893807811107,0.444469039055536));
#109=DIRECTION('',(0.00000000000000,1.00000000000000,0.00000000000000));
#110=VECTOR('',#109,1.00000000000000);
#111=LINE('',#108,#110);
#112=EDGE_CURVE('',#98,#107,#111,.T.);
#113=ORIENTED_EDGE('',*,*,#112,.T.);
#114=CARTESIAN_POINT('',(0.500000000000000,2.48310619218889,0.446893807811107));
#115=DIRECTION('',(-0.00000000000000,-1.00000000000000,-0.00000000000000));
#116=DIRECTION('',(-1.00000000000000,0.00000000000000,0.00000000000000));
#117=AXIS2_PLACEMENT_3D('',#114,#115,#116);
#118=CIRCLE('',#117,0.0700000000000000);
#119=EDGE_CURVE('',#107,#75,#118,.T.);
#120=ORIENTED_EDGE('',*,*,#119,.T.);
#121=ORIENTED_EDGE('',*,*,#80,.T.);
#122=EDGE_LOOP('',(#105,#113,#120,#121));
#123=FACE_OUTER_BOUND('',#122,.T.);
#124=CARTESIAN_POINT('',(0.500000000000000,-0.516893807811107,0.446893807811107));
#125=DIRECTION('',(0.00000000000000,-1.00000000000000,0.00000000000000));
#126=DIRECTION('',(-1.00000000000000,0.00000000000000,0.00000000000000));
#127=AXIS2_PLACEMENT_3D('',#124,#125,#126);
#128=CYLINDRICAL_SURFACE('',#127,0.0700000000000000);
#129=ADVANCED_FACE('',(#123),#128,.T.);
#130=CARTESIAN_POINT('',(0.538978995470432,-3.51689380781111,-0.449318576566678));
#131=VERTEX_POINT('',#130);
#132=CARTESIAN_POINT('',(0.538978995470432,-3.51689380781111,-0.449318576566678));
#133=DIRECTION('',(-0.0346395536510229,-0.00000000000000,-0.999399870583771));
#134=VECTOR('',#133,1.00000000000000);
#135=LINE('',#132,#134);
#136=EDGE_CURVE('',#98,#131,#135,.T.);
#137=ORIENTED_EDGE('',*,*,#136,.T.);
#138=CARTESIAN_POINT('',(0.538978995470432,2.48310619218889,-0.449318576566678));
#139=VERTEX_POINT('',#138);
#140=CARTESIAN_POINT('',(0.538978995470432,-0.516893807811107,-0.449318576566678));
#141=DIRECTION('',(0.00000000000000,-1.00000000000000,0.00000000000000));
#142=VECTOR('',#141,1.00000000000000);
#143=LINE('',#140,#142);
#144=EDGE_CURVE('',#139,#131,#143,.T.);
#145=ORIENTED_EDGE('',*,*,#144,.F.);
#146=CARTESIAN_POINT('',(0.538978995470432,2.48310619218889,-0.449318576566678));
#147=DIRECTION('',(0.0346395536510229,0.00000000000000,0.999399870583771));
#148=VECTOR('',#147,1.00000000000000);
#149=LINE('',#146,#148);
#150=EDGE_CURVE('',#139,#107,#149,.T.);
#151=ORIENTED_EDGE('',*,*,#150,.T.);
#152=ORIENTED_EDGE('',*,*,#112,.F.);
#153=EDGE_LOOP('',(#137,#145,#151,#152));
#154=FACE_OUTER_BOUND('',#153,.T.);
#155=CARTESIAN_POINT('',(0.554468493205648,-0.516893807811107,-0.00242476875557135));
#156=DIRECTION('',(0.999399870583771,0.00000000000000,-0.0346395536510229));
#157=DIRECTION('',(0.0346395536510229,0.00000000000000,0.999399870583771));
#158=AXIS2_PLACEMENT_3D('',#155,#156,#157);
#159=PLANE('',#158);
#160=ADVANCED_FACE('',(#154),#159,.T.);
#161=CARTESIAN_POINT('',(0.469021004529568,-3.51689380781111,-0.446893807811107));
#162=VERTEX_POINT('',#161);
#163=CARTESIAN_POINT('',(0.504000000000000,-3.51689380781111,-0.448106192188892));
#164=DIRECTION('',(0.00000000000000,1.00000000000000,-6.12323399573677E-17));
#165=DIRECTION('',(1.00000000000000,0.00000000000000,0.00000000000000));
#166=AXIS2_PLACEMENT_3D('',#163,#164,#165);
#167=CIRCLE('',#166,0.0350000000000000);
#168=EDGE_CURVE('',#131,#162,#167,.T.);
#169=ORIENTED_EDGE('',*,*,#168,.T.);
#170=CARTESIAN_POINT('',(0.469021004529568,2.48310619218889,-0.446893807811107));
#171=VERTEX_POINT('',#170);
#172=CARTESIAN_POINT('',(0.469021004529568,-0.516893807811107,-0.446893807811107));
#173=DIRECTION('',(0.00000000000000,1.00000000000000,0.00000000000000));
#174=VECTOR('',#173,1.00000000000000);
#175=LINE('',#172,#174);
#176=EDGE_CURVE('',#162,#171,#175,.T.);
#177=ORIENTED_EDGE('',*,*,#176,.T.);
#178=CARTESIAN_POINT('',(0.504000000000000,2.48310619218889,-0.448106192188892));
#179=DIRECTION('',(0.00000000000000,-1.00000000000000,6.12323399573677E-17));
#180=DIRECTION('',(1.00000000000000,0.00000000000000,0.00000000000000));
#181=AXIS2_PLACEMENT_3D('',#178,#179,#180);
#182=CIRCLE('',#181,0.0350000000000000);
#183=EDGE_CURVE('',#171,#139,#182,.T.);
#184=ORIENTED_EDGE('',*,*,#183,.T.);
#185=ORIENTED_EDGE('',*,*,#144,.T.);
#186=EDGE_LOOP('',(#169,#177,#184,#185));
#187=FACE_OUTER_BOUND('',#186,.T.);
#188=CARTESIAN_POINT('',(0.504000000000000,-0.516893807811107,-0.448106192188892));
#189=DIRECTION('',(0.00000000000000,-1.00000000000000,0.00000000000000));
#190=DIRECTION('',(1.00000000000000,0.00000000000000,0.00000000000000));
#191=AXIS2_PLACEMENT_3D('',#188,#189,#190);
#192=CYLINDRICAL_SURFACE('',#191,0.0350000000000000);
#193=ADVANCED_FACE('',(#187),#192,.T.);
#194=CARTESIAN_POINT('',(0.500000000000000,-3.51689380781111,0.446893807811107));
#195=VERTEX_POINT('',#194);
#196=CARTESIAN_POINT('',(0.469021004529568,-3.51689380781111,-0.446893807811107));
#197=DIRECTION('',(0.0346395536510218,0.00000000000000,0.999399870583771));
#198=VECTOR('',#197,1.00000000000000);
#199=LINE('',#196,#198);
#200=EDGE_CURVE('',#162,#195,#199,.T.);
#201=ORIENTED_EDGE('',*,*,#200,.T.);
#202=CARTESIAN_POINT('',(0.500000000000000,2.48310619218889,0.446893807811107));
#203=VERTEX_POINT('',#202);
#204=CARTESIAN_POINT('',(0.500000000000000,-0.516893807811107,0.446893807811107));
#205=DIRECTION('',(0.00000000000000,1.00000000000000,0.00000000000000));
#206=VECTOR('',#205,1.00000000000000);
#207=LINE('',#204,#206);
#208=EDGE_CURVE('',#195,#203,#207,.T.);
#209=ORIENTED_EDGE('',*,*,#208,.T.);
#210=CARTESIAN_POINT('',(0.469021004529568,2.48310619218889,-0.446893807811107));
#211=DIRECTION('',(-0.0346395536510218,-0.00000000000000,-0.999399870583771));
#212=VECTOR('',#211,1.00000000000000);
#213=LINE('',#210,#212);
#214=EDGE_CURVE('',#203,#171,#213,.T.);
#215=ORIENTED_EDGE('',*,*,#214,.T.);
#216=ORIENTED_EDGE('',*,*,#176,.F.);
#217=EDGE_LOOP('',(#201,#209,#215,#216));
#218=FACE_OUTER_BOUND('',#217,.T.);
#219=CARTESIAN_POINT('',(0.484510502264784,-0.516893807811107,2.22044604925031E-16));
#220=DIRECTION('',(-0.999399870583771,0.00000000000000,0.0346395536510218));
#221=DIRECTION('',(-0.0346395536510218,-0.00000000000000,-0.999399870583771));
#222=AXIS2_PLACEMENT_3D('',#219,#220,#221);
#223=PLANE('',#222);
#224=ADVANCED_FACE('',(#218),#223,.T.);
#225=CARTESIAN_POINT('',(-0.500000000000000,-3.51689380781111,0.446893807811107));
#226=VERTEX_POINT('',#225);
#227=CARTESIAN_POINT('',(0.500000000000000,-3.51689380781111,0.446893807811107));
#228=DIRECTION('',(-1.00000000000000,0.00000000000000,0.00000000000000));
#229=VECTOR('',#228,1.00000000000000);
#230=LINE('',#227,#229);
#231=EDGE_CURVE('',#195,#226,#230,.T.);
#232=ORIENTED_EDGE('',*,*,#231,.T.);
#233=CARTESIAN_POINT('',(-0.500000000000000,2.48310619218889,0.446893807811107));
#234=VERTEX_POINT('',#233);
#235=CARTESIAN_POINT('',(-0.500000000000000,-0.516893807811107,0.446893807811107));
#236=DIRECTION('',(0.00000000000000,1.00000000000000,0.00000000000000));
#237=VECTOR('',#236,1.00000000000000);
#238=LINE('',#235,#237);
#239=EDGE_CURVE('',#226,#234,#238,.T.);
#240=ORIENTED_EDGE('',*,*,#239,.T.);
#241=CARTESIAN_POINT('',(0.500000000000000,2.48310619218889,0.446893807811107));
#242=DIRECTION('',(1.00000000000000,0.00000000000000,0.00000000000000));
#243=VECTOR('',#242,1.00000000000000);
#244=LINE('',#241,#243);
#245=EDGE_CURVE('',#234,#203,#244,.T.);
#246=ORIENTED_EDGE('',*,*,#245,.T.);
#247=ORIENTED_EDGE('',*,*,#208,.F.);
#248=EDGE_LOOP('',(#232,#240,#246,#247));
#249=FACE_OUTER_BOUND('',#248,.T.);
#250=CARTESIAN_POINT('',(0.00000000000000,-0.516893807811107,0.446893807811107));
#251=DIRECTION('',(-0.00000000000000,-0.00000000000000,-1.00000000000000));
#252=DIRECTION('',(1.00000000000000,-0.00000000000000,-0.00000000000000));
#253=AXIS2_PLACEMENT_3D('',#250,#251,#252);
#254=PLANE('',#253);
#255=ADVANCED_FACE('',(#249),#254,.T.);
#256=CARTESIAN_POINT('',(-0.469021004529568,-3.51689380781111,-0.446893807811107));
#257=VERTEX_POINT('',#256);
#258=CARTESIAN_POINT('',(-0.469021004529568,-3.51689380781111,-0.446893807811107));
#259=DIRECTION('',(0.0346395536510223,0.00000000000000,-0.999399870583771));
#260=VECTOR('',#259,1.00000000000000);
#261=LINE('',#258,#260);
#262=EDGE_CURVE('',#226,#257,#261,.T.);
#263=ORIENTED_EDGE('',*,*,#262,.T.);
#264=CARTESIAN_POINT('',(-0.469021004529568,2.48310619218889,-0.446893807811107));
#265=VERTEX_POINT('',#264);
#266=CARTESIAN_POINT('',(-0.469021004529568,-0.516893807811107,-0.446893807811107));
#267=DIRECTION('',(0.00000000000000,-1.00000000000000,0.00000000000000));
#268=VECTOR('',#267,1.00000000000000);
#269=LINE('',#266,#268);
#270=EDGE_CURVE('',#265,#257,#269,.T.);
#271=ORIENTED_EDGE('',*,*,#270,.F.);
#272=CARTESIAN_POINT('',(-0.469021004529568,2.48310619218889,-0.446893807811107));
#273=DIRECTION('',(-0.0346395536510223,0.00000000000000,0.999399870583771));
#274=VECTOR('',#273,1.00000000000000);
#275=LINE('',#272,#274);
#276=EDGE_CURVE('',#265,#234,#275,.T.);
#277=ORIENTED_EDGE('',*,*,#276,.T.);
#278=ORIENTED_EDGE('',*,*,#239,.F.);
#279=EDGE_LOOP('',(#263,#271,#277,#278));
#280=FACE_OUTER_BOUND('',#279,.T.);
#281=CARTESIAN_POINT('',(-0.484510502264784,-0.516893807811107,2.77555756156289E-16));
#282=DIRECTION('',(0.999399870583771,0.00000000000000,0.0346395536510223));
#283=DIRECTION('',(-0.0346395536510223,0.00000000000000,0.999399870583771));
#284=AXIS2_PLACEMENT_3D('',#281,#282,#283);
#285=PLANE('',#284);
#286=ADVANCED_FACE('',(#280),#285,.T.);
#287=CARTESIAN_POINT('',(-0.538978995470432,-3.51689380781111,-0.449318576566678));
#288=VERTEX_POINT('',#287);
#289=CARTESIAN_POINT('',(-0.504000000000000,-3.51689380781111,-0.448106192188892));
#290=DIRECTION('',(0.00000000000000,1.00000000000000,-6.12323399573677E-17));
#291=DIRECTION('',(1.00000000000000,0.00000000000000,0.00000000000000));
#292=AXIS2_PLACEMENT_3D('',#289,#290,#291);
#293=CIRCLE('',#292,0.0350000000000000);
#294=EDGE_CURVE('',#257,#288,#293,.T.);
#295=ORIENTED_EDGE('',*,*,#294,.T.);
#296=CARTESIAN_POINT('',(-0.538978995470432,2.48310619218889,-0.449318576566678));
#297=VERTEX_POINT('',#296);
#298=CARTESIAN_POINT('',(-0.538978995470432,-0.516893807811107,-0.449318576566678));
#299=DIRECTION('',(0.00000000000000,1.00000000000000,0.00000000000000));
#300=VECTOR('',#299,1.00000000000000);
#301=LINE('',#298,#300);
#302=EDGE_CURVE('',#288,#297,#301,.T.);
#303=ORIENTED_EDGE('',*,*,#302,.T.);
#304=CARTESIAN_POINT('',(-0.504000000000000,2.48310619218889,-0.448106192188892));
#305=DIRECTION('',(0.00000000000000,-1.00000000000000,6.12323399573677E-17));
#306=DIRECTION('',(1.00000000000000,0.00000000000000,0.00000000000000));
#307=AXIS2_PLACEMENT_3D('',#304,#305,#306);
#308=CIRCLE('',#307,0.0350000000000000);
#309=EDGE_CURVE('',#297,#265,#308,.T.);
#310=ORIENTED_EDGE('',*,*,#309,.T.);
#311=ORIENTED_EDGE('',*,*,#270,.T.);
#312=EDGE_LOOP('',(#295,#303,#310,#311));
#313=FACE_OUTER_BOUND('',#312,.T.);
#314=CARTESIAN_POINT('',(-0.504000000000000,-0.516893807811107,-0.448106192188892));
#315=DIRECTION('',(0.00000000000000,-1.00000000000000,0.00000000000000));
#316=DIRECTION('',(-0.0346395536510169,0.00000000000000,0.999399870583771));
#317=AXIS2_PLACEMENT_3D('',#314,#315,#316);
#318=CYLINDRICAL_SURFACE('',#317,0.0350000000000000);
#319=ADVANCED_FACE('',(#313),#318,.T.);
#320=CARTESIAN_POINT('',(-0.538978995470432,-3.51689380781111,-0.449318576566678));
#321=DIRECTION('',(-0.0346395536510224,0.00000000000000,0.999399870583771));
#322=VECTOR('',#321,1.00000000000000);
#323=LINE('',#320,#322);
#324=EDGE_CURVE('',#288,#25,#323,.T.);
#325=ORIENTED_EDGE('',*,*,#324,.T.);
#326=ORIENTED_EDGE('',*,*,#56,.F.);
#327=CARTESIAN_POINT('',(-0.538978995470432,2.48310619218889,-0.449318576566678));
#328=DIRECTION('',(0.0346395536510224,0.00000000000000,-0.999399870583771));
#329=VECTOR('',#328,1.00000000000000);
#330=LINE('',#327,#329);
#331=EDGE_CURVE('',#44,#297,#330,.T.);
#332=ORIENTED_EDGE('',*,*,#331,.T.);
#333=ORIENTED_EDGE('',*,*,#302,.F.);
#334=EDGE_LOOP('',(#325,#326,#332,#333));
#335=FACE_OUTER_BOUND('',#334,.T.);
#336=CARTESIAN_POINT('',(-0.554468493205648,-0.516893807811107,-0.00242476875557102));
#337=DIRECTION('',(-0.999399870583771,-0.00000000000000,-0.0346395536510224));
#338=DIRECTION('',(0.0346395536510224,-0.00000000000000,-0.999399870583771));
#339=AXIS2_PLACEMENT_3D('',#336,#337,#338);
#340=PLANE('',#339);
#341=ADVANCED_FACE('',(#335),#340,.T.);
#342=ORIENTED_EDGE('',*,*,#33,.F.);
#343=ORIENTED_EDGE('',*,*,#324,.F.);
#344=ORIENTED_EDGE('',*,*,#294,.F.);
#345=ORIENTED_EDGE('',*,*,#262,.F.);
#346=ORIENTED_EDGE('',*,*,#231,.F.);
#347=ORIENTED_EDGE('',*,*,#200,.F.);
#348=ORIENTED_EDGE('',*,*,#168,.F.);
#349=ORIENTED_EDGE('',*,*,#136,.F.);
#350=ORIENTED_EDGE('',*,*,#104,.F.);
#351=ORIENTED_EDGE('',*,*,#72,.F.);
#352=EDGE_LOOP('',(#342,#343,#344,#345,#346,#347,#348,#349,#350,#351));
#353=FACE_OUTER_BOUND('',#352,.T.);
#354=CARTESIAN_POINT('',(-0.548654510230735,-3.51689380781111,-0.170166359517470));
#355=DIRECTION('',(0.00000000000000,-1.00000000000000,0.00000000000000));
#356=DIRECTION('',(1.00000000000000,0.00000000000000,0.00000000000000));
#357=AXIS2_PLACEMENT_3D('',#354,#355,#356);
#358=PLANE('',#357);
#359=ADVANCED_FACE('',(#353),#358,.T.);
#360=ORIENTED_EDGE('',*,*,#309,.F.);
#361=ORIENTED_EDGE('',*,*,#331,.F.);
#362=ORIENTED_EDGE('',*,*,#50,.F.);
#363=ORIENTED_EDGE('',*,*,#86,.F.);
#364=ORIENTED_EDGE('',*,*,#119,.F.);
#365=ORIENTED_EDGE('',*,*,#150,.F.);
#366=ORIENTED_EDGE('',*,*,#183,.F.);
#367=ORIENTED_EDGE('',*,*,#214,.F.);
#368=ORIENTED_EDGE('',*,*,#245,.F.);
#369=ORIENTED_EDGE('',*,*,#276,.F.);
#370=EDGE_LOOP('',(#360,#361,#362,#363,#364,#365,#366,#367,#368,#369));
#371=FACE_OUTER_BOUND('',#370,.T.);
#372=CARTESIAN_POINT('',(-0.548654510230735,2.48310619218889,-0.170166359517470));
#373=DIRECTION('',(0.00000000000000,-1.00000000000000,0.00000000000000));
#374=DIRECTION('',(1.00000000000000,0.00000000000000,0.00000000000000));
#375=AXIS2_PLACEMENT_3D('',#372,#373,#374);
#376=PLANE('',#375);
#377=ADVANCED_FACE('',(#371),#376,.F.);
#378=CLOSED_SHELL('',(#65,#96,#129,#160,#193,#224,#255,#286,#319,#341,#359,#377));
#379=MANIFOLD_SOLID_BREP('',#378);
#380=COLOUR_RGB('',1.00000000000000,0.00000000000000,0.00000000000000);
#381=FILL_AREA_STYLE_COLOUR('',#380);
#382=FILL_AREA_STYLE('',(#381));
#383=SURFACE_STYLE_FILL_AREA(#382);
#384=SURFACE_SIDE_STYLE('',(#383));
#385=SURFACE_STYLE_USAGE(.BOTH.,#384);
#386=PRESENTATION_STYLE_ASSIGNMENT((#385));
#387=STYLED_ITEM('',(#386),#379);
#388=ADVANCED_BREP_SHAPE_REPRESENTATION('',(#379,#23),#18);
#389=PRODUCT('','','',(#2));
#390=PRODUCT_DEFINITION_FORMATION_WITH_SPECIFIED_SOURCE('','',#389,.NOT_KNOWN.);
#391=PRODUCT_CATEGORY('part','');
#392=PRODUCT_RELATED_PRODUCT_CATEGORY('detail','',(#389));
#393=PRODUCT_CATEGORY_RELATIONSHIP('','',#391,#392);
#394=PRODUCT_DEFINITION('','',#390,#1);
#395=PRODUCT_DEFINITION_SHAPE('NONE','NONE',#394);
#396=SHAPE_DEFINITION_REPRESENTATION(#395,#388);
#397=PRESENTATION_LAYER_ASSIGNMENT('1','Unnamed [1]',(#379));
ENDSEC;
END-ISO-10303-21;
