ISO-10303-21;
HEADER;
FILE_DESCRIPTION((''),'2;1');
FILE_NAME('C:/Program Files/Kubotek/KeyCreatorPro.2021.SP0/STEP/SG250NC.STP', '2021-03-22T14:42:40',(''), (''), 'KCM Version 2.0.6974.6974', 'KeyCreator Pro', '');
FILE_SCHEMA(('AUTOMOTIVE_DESIGN'));
ENDSEC;
DATA;
#1=PRODUCT_DEFINITION_CONTEXT('',#4,'design');
#2=PRODUCT_CONTEXT('',#4,'mechanical');
#3=APPLICATION_PROTOCOL_DEFINITION('International Standard','automotive_design',2001,#4);
#4=APPLICATION_CONTEXT('automotive design');
#10=DIMENSIONAL_EXPONENTS(1.0,0.0,0.0,0.0,0.0,0.0,0.0);
#11=DIMENSIONAL_EXPONENTS(0.0,0.0,0.0,0.0,0.0,0.0,0.0);
#12=(NAMED_UNIT(#10)LENGTH_UNIT()SI_UNIT(.MILLI.,.METRE.));
#13=(NAMED_UNIT(#11)PLANE_ANGLE_UNIT()SI_UNIT($,.RADIAN.));
#14=(NAMED_UNIT(#11)SOLID_ANGLE_UNIT()SI_UNIT($,.STERADIAN.));
#15=LENGTH_MEASURE_WITH_UNIT(LENGTH_MEASURE(25.4),#12);
#16= (CONVERSION_BASED_UNIT('INCH',#15)LENGTH_UNIT()NAMED_UNIT(#10));
#17=UNCERTAINTY_MEASURE_WITH_UNIT(LENGTH_MEASURE(1.0E-006),#16,'','');
#18=(GEOMETRIC_REPRESENTATION_CONTEXT(3)GLOBAL_UNCERTAINTY_ASSIGNED_CONTEXT((#17))GLOBAL_UNIT_ASSIGNED_CONTEXT((#16,#13,#14))REPRESENTATION_CONTEXT('NONE','WORKSPACE'));
#20=CARTESIAN_POINT('',(0.00000000000000,0.00000000000000,0.00000000000000));
#21=DIRECTION('',(0.00000000000000,0.00000000000000,1.00000000000000));
#22=DIRECTION('',(1.00000000000000,0.00000000000000,0.00000000000000));
#23=AXIS2_PLACEMENT_3D('',#20,#21,#22);
#24=CARTESIAN_POINT('',(-0.775341224653534,-3.06052966333825,0.140942568725119));
#25=VERTEX_POINT('',#24);
#26=CARTESIAN_POINT('',(-0.775341224653534,2.93947033666175,0.140942568725119));
#27=VERTEX_POINT('',#26);
#28=CARTESIAN_POINT('',(-0.775341224653534,-0.0605296633382487,0.140942568725119));
#29=DIRECTION('',(-6.52466743490893E-17,1.00000000000000,-1.11022302462516E-16));
#30=VECTOR('',#29,1.00000000000000);
#31=LINE('',#28,#30);
#32=EDGE_CURVE('',#25,#27,#31,.T.);
#33=ORIENTED_EDGE('',*,*,#32,.F.);
#34=CARTESIAN_POINT('',(-0.766254811434952,-3.06052966333825,-0.0184140739949237));
#35=VERTEX_POINT('',#34);
#36=CARTESIAN_POINT('',(-0.278008816280517,-3.06052966333825,0.0893627705295644));
#37=DIRECTION('',(0.00000000000000,-1.00000000000000,6.12323399573677E-17));
#38=DIRECTION('',(1.00000000000000,0.00000000000000,0.00000000000000));
#39=AXIS2_PLACEMENT_3D('',#36,#37,#38);
#40=CIRCLE('',#39,0.500000000000000);
#41=EDGE_CURVE('',#25,#35,#40,.T.);
#42=ORIENTED_EDGE('',*,*,#41,.T.);
#43=CARTESIAN_POINT('',(-0.766254811434951,2.93947033666175,-0.0184140739949243));
#44=VERTEX_POINT('',#43);
#45=CARTESIAN_POINT('',(-0.766254811434951,-0.0605296633382487,-0.0184140739949240));
#46=DIRECTION('',(-3.70074341541719E-17,-1.00000000000000,9.71445146547012E-17));
#47=VECTOR('',#46,1.00000000000000);
#48=LINE('',#45,#47);
#49=EDGE_CURVE('',#44,#35,#48,.T.);
#50=ORIENTED_EDGE('',*,*,#49,.F.);
#51=CARTESIAN_POINT('',(-0.278008816280517,2.93947033666175,0.0893627705295639));
#52=DIRECTION('',(0.00000000000000,1.00000000000000,-6.12323399573677E-17));
#53=DIRECTION('',(1.00000000000000,0.00000000000000,0.00000000000000));
#54=AXIS2_PLACEMENT_3D('',#51,#52,#53);
#55=CIRCLE('',#54,0.500000000000000);
#56=EDGE_CURVE('',#44,#27,#55,.T.);
#57=ORIENTED_EDGE('',*,*,#56,.T.);
#58=EDGE_LOOP('',(#33,#42,#50,#57));
#59=FACE_OUTER_BOUND('',#58,.T.);
#60=CARTESIAN_POINT('',(-0.278008816280517,-0.0605296633382487,0.0893627705295642));
#61=DIRECTION('',(-3.70074341541719E-17,-1.00000000000000,9.71445146547012E-17));
#62=DIRECTION('',(1.00000000000000,-3.70074341541719E-17,3.59506922952284E-33));
#63=AXIS2_PLACEMENT_3D('',#60,#61,#62);
#64=CYLINDRICAL_SURFACE('',#63,0.500000000000000);
#65=ADVANCED_FACE('',(#59),#64,.F.);
#66=ORIENTED_EDGE('',*,*,#49,.T.);
#67=CARTESIAN_POINT('',(-5.29062135584494E-16,-3.06052966333825,-0.633970336661751));
#68=VERTEX_POINT('',#67);
#69=CARTESIAN_POINT('',(-4.50921610706932E-16,-3.06052966333825,0.150731247211539));
#70=DIRECTION('',(-8.65956056235493E-17,-1.00000000000000,1.47827945580917E-16));
#71=DIRECTION('',(2.22044604925031E-16,1.47827945580917E-16,1.00000000000000));
#72=AXIS2_PLACEMENT_3D('',#69,#70,#71);
#73=CIRCLE('',#72,0.784701583873290);
#74=EDGE_CURVE('',#35,#68,#73,.T.);
#75=ORIENTED_EDGE('',*,*,#74,.T.);
#76=CARTESIAN_POINT('',(-3.07017530659463E-16,2.93947033666175,-0.633970336661752));
#77=VERTEX_POINT('',#76);
#78=CARTESIAN_POINT('',(-4.18039833121978E-16,-0.0605296633382487,-0.633970336661752));
#79=DIRECTION('',(-3.70074341541719E-17,-1.00000000000000,9.71445146547012E-17));
#80=VECTOR('',#79,1.00000000000000);
#81=LINE('',#78,#80);
#82=EDGE_CURVE('',#77,#68,#81,.T.);
#83=ORIENTED_EDGE('',*,*,#82,.F.);
#84=CARTESIAN_POINT('',(-2.28877005781900E-16,2.93947033666175,0.150731247211538));
#85=DIRECTION('',(8.65956056235493E-17,1.00000000000000,-1.47827945580917E-16));
#86=DIRECTION('',(2.22044604925031E-16,1.47827945580917E-16,1.00000000000000));
#87=AXIS2_PLACEMENT_3D('',#84,#85,#86);
#88=CIRCLE('',#87,0.784701583873290);
#89=EDGE_CURVE('',#77,#44,#88,.T.);
#90=ORIENTED_EDGE('',*,*,#89,.T.);
#91=EDGE_LOOP('',(#66,#75,#83,#90));
#92=FACE_OUTER_BOUND('',#91,.T.);
#93=CARTESIAN_POINT('',(-3.39899308244416E-16,-0.0605296633382486,0.150731247211538));
#94=DIRECTION('',(-3.70074341541719E-17,-1.00000000000000,9.71445146547012E-17));
#95=DIRECTION('',(2.22044604925031E-16,9.71445146547012E-17,1.00000000000000));
#96=AXIS2_PLACEMENT_3D('',#93,#94,#95);
#97=CYLINDRICAL_SURFACE('',#96,0.784701583873290);
#98=ADVANCED_FACE('',(#92),#97,.F.);
#99=ORIENTED_EDGE('',*,*,#82,.T.);
#100=CARTESIAN_POINT('',(0.120598659389683,-3.06052966333825,0.744478647805228));
#101=VERTEX_POINT('',#100);
#102=CARTESIAN_POINT('',(-1.11022302462516E-16,-3.06052966333825,0.0605296633382490));
#103=DIRECTION('',(-3.98443629602688E-17,-1.00000000000000,6.47182700218035E-17));
#104=DIRECTION('',(-0.996194698091746,4.53333120229567E-17,0.0871557427476584));
#105=AXIS2_PLACEMENT_3D('',#102,#103,#104);
#106=CIRCLE('',#105,0.694500000000000);
#107=EDGE_CURVE('',#68,#101,#106,.T.);
#108=ORIENTED_EDGE('',*,*,#107,.T.);
#109=CARTESIAN_POINT('',(0.120598659389683,2.93947033666175,0.744478647805227));
#110=VERTEX_POINT('',#109);
#111=CARTESIAN_POINT('',(0.120598659389683,-0.0605296633382487,0.744478647805227));
#112=DIRECTION('',(3.70074341541719E-17,1.00000000000000,-9.71445146547012E-17));
#113=VECTOR('',#112,1.00000000000000);
#114=LINE('',#111,#113);
#115=EDGE_CURVE('',#101,#110,#114,.T.);
#116=ORIENTED_EDGE('',*,*,#115,.T.);
#117=CARTESIAN_POINT('',(1.11022302462516E-16,2.93947033666175,0.0605296633382484));
#118=DIRECTION('',(3.98443629602688E-17,1.00000000000000,-6.47182700218035E-17));
#119=DIRECTION('',(-0.996194698091746,4.53333120229567E-17,0.0871557427476584));
#120=AXIS2_PLACEMENT_3D('',#117,#118,#119);
#121=CIRCLE('',#120,0.694500000000000);
#122=EDGE_CURVE('',#110,#77,#121,.T.);
#123=ORIENTED_EDGE('',*,*,#122,.T.);
#124=EDGE_LOOP('',(#99,#108,#116,#123));
#125=FACE_OUTER_BOUND('',#124,.T.);
#126=CARTESIAN_POINT('',(0.00000000000000,-0.0605296633382487,0.0605296633382487));
#127=DIRECTION('',(-3.70074341541719E-17,-1.00000000000000,9.71445146547012E-17));
#128=DIRECTION('',(-0.996194698091746,4.53333120229567E-17,0.0871557427476584));
#129=AXIS2_PLACEMENT_3D('',#126,#127,#128);
#130=CYLINDRICAL_SURFACE('',#129,0.694500000000000);
#131=ADVANCED_FACE('',(#125),#130,.F.);
#132=ORIENTED_EDGE('',*,*,#115,.F.);
#133=CARTESIAN_POINT('',(0.135011458136038,-3.06052966333825,0.826217691305241));
#134=VERTEX_POINT('',#133);
#135=CARTESIAN_POINT('',(0.120598659389683,-3.06052966333825,0.744478647805228));
#136=DIRECTION('',(0.173648177666930,8.36011313723765E-17,0.984807753012208));
#137=VECTOR('',#136,1.00000000000000);
#138=LINE('',#135,#137);
#139=EDGE_CURVE('',#101,#134,#138,.T.);
#140=ORIENTED_EDGE('',*,*,#139,.T.);
#141=CARTESIAN_POINT('',(0.135011458136038,2.93947033666175,0.826217691305240));
#142=VERTEX_POINT('',#141);
#143=CARTESIAN_POINT('',(0.135011458136038,-0.0605296633382486,0.826217691305240));
#144=DIRECTION('',(-3.70074341541719E-17,-1.00000000000000,9.71445146547012E-17));
#145=VECTOR('',#144,1.00000000000000);
#146=LINE('',#143,#145);
#147=EDGE_CURVE('',#142,#134,#146,.T.);
#148=ORIENTED_EDGE('',*,*,#147,.F.);
#149=CARTESIAN_POINT('',(0.120598659389683,2.93947033666175,0.744478647805227));
#150=DIRECTION('',(-0.173648177666930,-8.36011313723765E-17,-0.984807753012208));
#151=VECTOR('',#150,1.00000000000000);
#152=LINE('',#149,#151);
#153=EDGE_CURVE('',#142,#110,#152,.T.);
#154=ORIENTED_EDGE('',*,*,#153,.T.);
#155=EDGE_LOOP('',(#132,#140,#148,#154));
#156=FACE_OUTER_BOUND('',#155,.T.);
#157=CARTESIAN_POINT('',(0.127805058762861,-0.0605296633382486,0.785348169555234));
#158=DIRECTION('',(-0.984807753012208,5.33141760142445E-17,0.173648177666930));
#159=DIRECTION('',(-0.173648177666930,-8.36011313723765E-17,-0.984807753012208));
#160=AXIS2_PLACEMENT_3D('',#157,#158,#159);
#161=PLANE('',#160);
#162=ADVANCED_FACE('',(#156),#161,.T.);
#163=ORIENTED_EDGE('',*,*,#147,.T.);
#164=CARTESIAN_POINT('',(-2.53846735413076E-16,-3.06052966333825,-0.716970336661751));
#165=VERTEX_POINT('',#164);
#166=CARTESIAN_POINT('',(-1.11022302462516E-16,-3.06052966333825,0.0605296633382490));
#167=DIRECTION('',(3.98443629602688E-17,1.00000000000000,-6.47182700218034E-17));
#168=DIRECTION('',(-0.996194698091746,4.53333120229567E-17,0.0871557427476581));
#169=AXIS2_PLACEMENT_3D('',#166,#167,#168);
#170=CIRCLE('',#169,0.777500000000000);
#171=EDGE_CURVE('',#134,#165,#170,.T.);
#172=ORIENTED_EDGE('',*,*,#171,.T.);
#173=CARTESIAN_POINT('',(-3.18021304880444E-17,2.93947033666175,-0.716970336661752));
#174=VERTEX_POINT('',#173);
#175=CARTESIAN_POINT('',(-1.42824432950560E-16,-0.0605296633382487,-0.716970336661751));
#176=DIRECTION('',(-3.70074341541719E-17,-1.00000000000000,9.71445146547012E-17));
#177=VECTOR('',#176,1.00000000000000);
#178=LINE('',#175,#177);
#179=EDGE_CURVE('',#174,#165,#178,.T.);
#180=ORIENTED_EDGE('',*,*,#179,.F.);
#181=CARTESIAN_POINT('',(1.11022302462516E-16,2.93947033666175,0.0605296633382484));
#182=DIRECTION('',(-3.98443629602688E-17,-1.00000000000000,6.47182700218034E-17));
#183=DIRECTION('',(-0.996194698091746,4.53333120229567E-17,0.0871557427476581));
#184=AXIS2_PLACEMENT_3D('',#181,#182,#183);
#185=CIRCLE('',#184,0.777500000000000);
#186=EDGE_CURVE('',#174,#142,#185,.T.);
#187=ORIENTED_EDGE('',*,*,#186,.T.);
#188=EDGE_LOOP('',(#163,#172,#180,#187));
#189=FACE_OUTER_BOUND('',#188,.T.);
#190=CARTESIAN_POINT('',(0.00000000000000,-0.0605296633382487,0.0605296633382487));
#191=DIRECTION('',(-3.70074341541719E-17,-1.00000000000000,9.71445146547012E-17));
#192=DIRECTION('',(-0.996194698091746,4.53333120229567E-17,0.0871557427476581));
#193=AXIS2_PLACEMENT_3D('',#190,#191,#192);
#194=CYLINDRICAL_SURFACE('',#193,0.777500000000000);
#195=ADVANCED_FACE('',(#189),#194,.T.);
#196=ORIENTED_EDGE('',*,*,#179,.T.);
#197=CARTESIAN_POINT('',(-0.853981819284604,-3.06052966333825,-0.000348988616555875));
#198=VERTEX_POINT('',#197);
#199=CARTESIAN_POINT('',(-4.92931301727108E-16,-3.06052966333825,0.150175965589052));
#200=DIRECTION('',(8.65956056235493E-17,1.00000000000000,-1.47827945580917E-16));
#201=DIRECTION('',(2.22044604925031E-16,1.47827945580917E-16,1.00000000000000));
#202=AXIS2_PLACEMENT_3D('',#199,#200,#201);
#203=CIRCLE('',#202,0.867146302250804);
#204=EDGE_CURVE('',#165,#198,#203,.T.);
#205=ORIENTED_EDGE('',*,*,#204,.T.);
#206=CARTESIAN_POINT('',(-0.853981819284604,2.93947033666175,-0.000348988616556458));
#207=VERTEX_POINT('',#206);
#208=CARTESIAN_POINT('',(-0.853981819284604,-0.0605296633382486,-0.000348988616556166));
#209=DIRECTION('',(-3.70074341541719E-17,-1.00000000000000,9.71445146547012E-17));
#210=VECTOR('',#209,1.00000000000000);
#211=LINE('',#208,#210);
#212=EDGE_CURVE('',#207,#198,#211,.T.);
#213=ORIENTED_EDGE('',*,*,#212,.F.);
#214=CARTESIAN_POINT('',(-2.70886696802077E-16,2.93947033666175,0.150175965589052));
#215=DIRECTION('',(-8.65956056235493E-17,-1.00000000000000,1.47827945580917E-16));
#216=DIRECTION('',(2.22044604925031E-16,1.47827945580917E-16,1.00000000000000));
#217=AXIS2_PLACEMENT_3D('',#214,#215,#216);
#218=CIRCLE('',#217,0.867146302250804);
#219=EDGE_CURVE('',#207,#174,#218,.T.);
#220=ORIENTED_EDGE('',*,*,#219,.T.);
#221=EDGE_LOOP('',(#196,#205,#213,#220));
#222=FACE_OUTER_BOUND('',#221,.T.);
#223=CARTESIAN_POINT('',(-3.81908999264593E-16,-0.0605296633382486,0.150175965589052));
#224=DIRECTION('',(-3.70074341541719E-17,-1.00000000000000,9.71445146547012E-17));
#225=DIRECTION('',(2.22044604925031E-16,9.71445146547012E-17,1.00000000000000));
#226=AXIS2_PLACEMENT_3D('',#223,#224,#225);
#227=CYLINDRICAL_SURFACE('',#226,0.867146302250804);
#228=ADVANCED_FACE('',(#222),#227,.T.);
#229=ORIENTED_EDGE('',*,*,#212,.T.);
#230=CARTESIAN_POINT('',(-0.860293219204069,-3.06052966333825,0.122188620445059));
#231=VERTEX_POINT('',#230);
#232=CARTESIAN_POINT('',(-0.361572512419102,-3.06052966333825,0.0864442974845894));
#233=DIRECTION('',(0.00000000000000,1.00000000000000,-6.12323399573677E-17));
#234=DIRECTION('',(1.00000000000000,0.00000000000000,0.00000000000000));
#235=AXIS2_PLACEMENT_3D('',#232,#233,#234);
#236=CIRCLE('',#235,0.500000000000000);
#237=EDGE_CURVE('',#198,#231,#236,.T.);
#238=ORIENTED_EDGE('',*,*,#237,.T.);
#239=CARTESIAN_POINT('',(-0.860293219204070,2.93947033666175,0.122188620445058));
#240=VERTEX_POINT('',#239);
#241=CARTESIAN_POINT('',(-0.860293219204069,-0.0605296633382487,0.122188620445058));
#242=DIRECTION('',(6.52466743490893E-17,-1.00000000000000,1.11022302462516E-16));
#243=VECTOR('',#242,1.00000000000000);
#244=LINE('',#241,#243);
#245=EDGE_CURVE('',#240,#231,#244,.T.);
#246=ORIENTED_EDGE('',*,*,#245,.F.);
#247=CARTESIAN_POINT('',(-0.361572512419101,2.93947033666175,0.0864442974845888));
#248=DIRECTION('',(0.00000000000000,-1.00000000000000,6.12323399573677E-17));
#249=DIRECTION('',(1.00000000000000,0.00000000000000,0.00000000000000));
#250=AXIS2_PLACEMENT_3D('',#247,#248,#249);
#251=CIRCLE('',#250,0.500000000000000);
#252=EDGE_CURVE('',#240,#207,#251,.T.);
#253=ORIENTED_EDGE('',*,*,#252,.T.);
#254=EDGE_LOOP('',(#229,#238,#246,#253));
#255=FACE_OUTER_BOUND('',#254,.T.);
#256=CARTESIAN_POINT('',(-0.361572512419102,-0.0605296633382487,0.0864442974845891));
#257=DIRECTION('',(-3.70074341541719E-17,-1.00000000000000,9.71445146547012E-17));
#258=DIRECTION('',(1.00000000000000,-3.70074341541719E-17,3.59506922952284E-33));
#259=AXIS2_PLACEMENT_3D('',#256,#257,#258);
#260=CYLINDRICAL_SURFACE('',#259,0.500000000000000);
#261=ADVANCED_FACE('',(#255),#260,.T.);
#262=CARTESIAN_POINT('',(-1.95740023047268E-16,2.93947033666175,-0.718970336661752));
#263=VERTEX_POINT('',#262);
#264=CARTESIAN_POINT('',(1.95740023047268E-16,-3.06052966333825,-0.718970336661751));
#265=VERTEX_POINT('',#264);
#266=CARTESIAN_POINT('',(0.00000000000000,-0.0605296633382487,-0.718970336661751));
#267=DIRECTION('',(6.52466743490893E-17,-1.00000000000000,1.11022302462516E-16));
#268=VECTOR('',#267,1.00000000000000);
#269=LINE('',#266,#268);
#270=EDGE_CURVE('',#263,#265,#269,.T.);
#271=ORIENTED_EDGE('',*,*,#270,.T.);
#272=CARTESIAN_POINT('',(1.95740023047268E-16,-3.06052966333825,0.0605296633382490));
#273=DIRECTION('',(0.00000000000000,-1.00000000000000,6.12323399573676E-17));
#274=DIRECTION('',(1.00000000000000,0.00000000000000,0.00000000000000));
#275=AXIS2_PLACEMENT_3D('',#272,#273,#274);
#276=CIRCLE('',#275,0.779500000000000);
#277=EDGE_CURVE('',#265,#25,#276,.T.);
#278=ORIENTED_EDGE('',*,*,#277,.T.);
#279=ORIENTED_EDGE('',*,*,#32,.T.);
#280=CARTESIAN_POINT('',(-1.95740023047268E-16,2.93947033666175,0.0605296633382484));
#281=DIRECTION('',(0.00000000000000,1.00000000000000,-6.12323399573676E-17));
#282=DIRECTION('',(1.00000000000000,0.00000000000000,0.00000000000000));
#283=AXIS2_PLACEMENT_3D('',#280,#281,#282);
#284=CIRCLE('',#283,0.779500000000000);
#285=EDGE_CURVE('',#27,#263,#284,.T.);
#286=ORIENTED_EDGE('',*,*,#285,.T.);
#287=EDGE_LOOP('',(#271,#278,#279,#286));
#288=FACE_OUTER_BOUND('',#287,.T.);
#289=CARTESIAN_POINT('',(0.00000000000000,-0.0605296633382487,0.0605296633382487));
#290=DIRECTION('',(6.52466743490893E-17,-1.00000000000000,1.11022302462516E-16));
#291=DIRECTION('',(-0.742684184694650,-1.22802852702055E-16,-0.669641845917983));
#292=AXIS2_PLACEMENT_3D('',#289,#290,#291);
#293=CYLINDRICAL_SURFACE('',#292,0.779500000000000);
#294=ADVANCED_FACE('',(#288),#293,.F.);
#295=ORIENTED_EDGE('',*,*,#245,.T.);
#296=CARTESIAN_POINT('',(1.95740023047268E-16,-3.06052966333825,-0.801970336661751));
#297=VERTEX_POINT('',#296);
#298=CARTESIAN_POINT('',(1.95740023047268E-16,-3.06052966333825,0.0605296633382490));
#299=DIRECTION('',(0.00000000000000,1.00000000000000,-6.12323399573677E-17));
#300=DIRECTION('',(1.00000000000000,0.00000000000000,0.00000000000000));
#301=AXIS2_PLACEMENT_3D('',#298,#299,#300);
#302=CIRCLE('',#301,0.862500000000000);
#303=EDGE_CURVE('',#231,#297,#302,.T.);
#304=ORIENTED_EDGE('',*,*,#303,.T.);
#305=CARTESIAN_POINT('',(-1.95740023047268E-16,2.93947033666175,-0.801970336661752));
#306=VERTEX_POINT('',#305);
#307=CARTESIAN_POINT('',(0.00000000000000,-0.0605296633382488,-0.801970336661751));
#308=DIRECTION('',(-6.52466743490893E-17,1.00000000000000,-1.11022302462516E-16));
#309=VECTOR('',#308,1.00000000000000);
#310=LINE('',#307,#309);
#311=EDGE_CURVE('',#297,#306,#310,.T.);
#312=ORIENTED_EDGE('',*,*,#311,.T.);
#313=CARTESIAN_POINT('',(-1.95740023047268E-16,2.93947033666175,0.0605296633382484));
#314=DIRECTION('',(0.00000000000000,-1.00000000000000,6.12323399573677E-17));
#315=DIRECTION('',(1.00000000000000,0.00000000000000,0.00000000000000));
#316=AXIS2_PLACEMENT_3D('',#313,#314,#315);
#317=CIRCLE('',#316,0.862500000000000);
#318=EDGE_CURVE('',#306,#240,#317,.T.);
#319=ORIENTED_EDGE('',*,*,#318,.T.);
#320=EDGE_LOOP('',(#295,#304,#312,#319));
#321=FACE_OUTER_BOUND('',#320,.T.);
#322=CARTESIAN_POINT('',(0.00000000000000,-0.0605296633382487,0.0605296633382487));
#323=DIRECTION('',(6.52466743490893E-17,-1.00000000000000,1.11022302462516E-16));
#324=DIRECTION('',(-0.731945573769300,-1.23403514912223E-16,-0.681363102199943));
#325=AXIS2_PLACEMENT_3D('',#322,#323,#324);
#326=CYLINDRICAL_SURFACE('',#325,0.862500000000000);
#327=ADVANCED_FACE('',(#321),#326,.T.);
#328=ORIENTED_EDGE('',*,*,#311,.F.);
#329=CARTESIAN_POINT('',(1.95740023047268E-16,-3.06052966333825,-0.801970336661751));
#330=DIRECTION('',(0.00000000000000,8.36011313723762E-17,1.00000000000000));
#331=VECTOR('',#330,1.00000000000000);
#332=LINE('',#329,#331);
#333=EDGE_CURVE('',#297,#265,#332,.T.);
#334=ORIENTED_EDGE('',*,*,#333,.T.);
#335=ORIENTED_EDGE('',*,*,#270,.F.);
#336=CARTESIAN_POINT('',(-1.95740023047268E-16,2.93947033666175,-0.801970336661752));
#337=DIRECTION('',(-0.00000000000000,-8.36011313723762E-17,-1.00000000000000));
#338=VECTOR('',#337,1.00000000000000);
#339=LINE('',#336,#338);
#340=EDGE_CURVE('',#263,#306,#339,.T.);
#341=ORIENTED_EDGE('',*,*,#340,.T.);
#342=EDGE_LOOP('',(#328,#334,#335,#341));
#343=FACE_OUTER_BOUND('',#342,.T.);
#344=CARTESIAN_POINT('',(0.00000000000000,-0.0605296633382487,-0.760470336661751));
#345=DIRECTION('',(-1.00000000000000,-6.52466743490893E-17,5.45469579386886E-33));
#346=DIRECTION('',(-0.00000000000000,-8.36011313723762E-17,-1.00000000000000));
#347=AXIS2_PLACEMENT_3D('',#344,#345,#346);
#348=PLANE('',#347);
#349=ADVANCED_FACE('',(#343),#348,.T.);
#350=ORIENTED_EDGE('',*,*,#41,.F.);
#351=ORIENTED_EDGE('',*,*,#277,.F.);
#352=ORIENTED_EDGE('',*,*,#333,.F.);
#353=ORIENTED_EDGE('',*,*,#303,.F.);
#354=ORIENTED_EDGE('',*,*,#237,.F.);
#355=ORIENTED_EDGE('',*,*,#204,.F.);
#356=ORIENTED_EDGE('',*,*,#171,.F.);
#357=ORIENTED_EDGE('',*,*,#139,.F.);
#358=ORIENTED_EDGE('',*,*,#107,.F.);
#359=ORIENTED_EDGE('',*,*,#74,.F.);
#360=EDGE_LOOP('',(#350,#351,#352,#353,#354,#355,#356,#357,#358,#359));
#361=FACE_OUTER_BOUND('',#360,.T.);
#362=CARTESIAN_POINT('',(1.95740023047268E-16,-3.06052966333825,-0.776047361661751));
#363=DIRECTION('',(6.52466743490893E-17,-1.00000000000000,1.21570700363364E-16));
#364=DIRECTION('',(1.00000000000000,6.52466743490893E-17,-3.08379408442564E-65));
#365=AXIS2_PLACEMENT_3D('',#362,#363,#364);
#366=PLANE('',#365);
#367=ADVANCED_FACE('',(#361),#366,.T.);
#368=ORIENTED_EDGE('',*,*,#252,.F.);
#369=ORIENTED_EDGE('',*,*,#318,.F.);
#370=ORIENTED_EDGE('',*,*,#340,.F.);
#371=ORIENTED_EDGE('',*,*,#285,.F.);
#372=ORIENTED_EDGE('',*,*,#56,.F.);
#373=ORIENTED_EDGE('',*,*,#89,.F.);
#374=ORIENTED_EDGE('',*,*,#122,.F.);
#375=ORIENTED_EDGE('',*,*,#153,.F.);
#376=ORIENTED_EDGE('',*,*,#186,.F.);
#377=ORIENTED_EDGE('',*,*,#219,.F.);
#378=EDGE_LOOP('',(#368,#369,#370,#371,#372,#373,#374,#375,#376,#377));
#379=FACE_OUTER_BOUND('',#378,.T.);
#380=CARTESIAN_POINT('',(-1.95740023047268E-16,2.93947033666175,-0.776047361661752));
#381=DIRECTION('',(6.52466743490893E-17,-1.00000000000000,1.21570700363364E-16));
#382=DIRECTION('',(1.00000000000000,6.52466743490893E-17,-3.08379408442564E-65));
#383=AXIS2_PLACEMENT_3D('',#380,#381,#382);
#384=PLANE('',#383);
#385=ADVANCED_FACE('',(#379),#384,.F.);
#386=CLOSED_SHELL('',(#65,#98,#131,#162,#195,#228,#261,#294,#327,#349,#367,#385));
#387=MANIFOLD_SOLID_BREP('',#386);
#388=COLOUR_RGB('',1.00000000000000,0.00000000000000,0.00000000000000);
#389=FILL_AREA_STYLE_COLOUR('',#388);
#390=FILL_AREA_STYLE('',(#389));
#391=SURFACE_STYLE_FILL_AREA(#390);
#392=SURFACE_SIDE_STYLE('',(#391));
#393=SURFACE_STYLE_USAGE(.BOTH.,#392);
#394=PRESENTATION_STYLE_ASSIGNMENT((#393));
#395=STYLED_ITEM('',(#394),#387);
#396=ADVANCED_BREP_SHAPE_REPRESENTATION('',(#387,#23),#18);
#397=PRODUCT('', '', ' ',(#2));
#398=PRODUCT_DEFINITION_FORMATION_WITH_SPECIFIED_SOURCE (' ', ' ', #397, .NOT_KNOWN.) ;
#399=PRODUCT_CATEGORY('part','') ;
#400=PRODUCT_RELATED_PRODUCT_CATEGORY('detail', ' ', (#397)) ;
#401=PRODUCT_CATEGORY_RELATIONSHIP(' ', ' ', #399, #400);
#402=PRODUCT_DEFINITION('', '', #398, #1);
#403=PRODUCT_DEFINITION_SHAPE('NONE', 'NONE', #402);
#404=SHAPE_DEFINITION_REPRESENTATION(#403, #396);
#405=PRESENTATION_LAYER_ASSIGNMENT('1','Unnamed [1]',(#387));
#406=MECHANICAL_DESIGN_GEOMETRIC_PRESENTATION_REPRESENTATION('',(#395), #18);
ENDSEC;
END-ISO-10303-21;
