ISO-10303-21;
HEADER;
FILE_DESCRIPTION(('', 'CAx-IF Rec.Pracs.---Representation and Presentation of Product Manufacturing Information (PMI)---4.0---2014-10-13'),'2;1');
FILE_NAME('C:/Program Files/Kubotek/KeyCreatorPro.2021.SP1/STEP/SG2484.STP', '2021-04-14T19:31:10',(''), (''), 'Kubotek Kosmos Version 3.0.7268.7268', 'KeyCreator Pro', '');
FILE_SCHEMA(('AP242_MANAGED_MODEL_BASED_3D_ENGINEERING_MIM_LF  { 1 0 10303 442 1 1 4 }'));
ENDSEC;
DATA;
#1=PRODUCT_DEFINITION_CONTEXT('',#4,'design');
#2=PRODUCT_CONTEXT('',#4,'mechanical');
#3=APPLICATION_PROTOCOL_DEFINITION('international standard','ap242_managed_model_based_3d_engineering',2011,#4);
#4=APPLICATION_CONTEXT('managed model based 3d engineering');
#10=DIMENSIONAL_EXPONENTS(1.0,0.0,0.0,0.0,0.0,0.0,0.0);
#11=DIMENSIONAL_EXPONENTS(0.0,0.0,0.0,0.0,0.0,0.0,0.0);
#12=(LENGTH_UNIT()NAMED_UNIT(#10)SI_UNIT(.MILLI.,.METRE.));
#13=(NAMED_UNIT(#11)PLANE_ANGLE_UNIT()SI_UNIT($,.RADIAN.));
#14=(NAMED_UNIT(#11)SI_UNIT($,.STERADIAN.)SOLID_ANGLE_UNIT());
#15=LENGTH_MEASURE_WITH_UNIT(LENGTH_MEASURE(25.4),#12);
#16= (CONVERSION_BASED_UNIT('INCH',#15)LENGTH_UNIT()NAMED_UNIT(#10));
#17=UNCERTAINTY_MEASURE_WITH_UNIT(LENGTH_MEASURE(1.0E-006),#16,'','');
#18=(GEOMETRIC_REPRESENTATION_CONTEXT(3)GLOBAL_UNCERTAINTY_ASSIGNED_CONTEXT((#17))GLOBAL_UNIT_ASSIGNED_CONTEXT((#16,#13,#14))REPRESENTATION_CONTEXT('NONE','WORKSPACE'));
#20=CARTESIAN_POINT('',(0.00000000000000,0.00000000000000,0.00000000000000));
#21=DIRECTION('',(0.00000000000000,0.00000000000000,1.00000000000000));
#22=DIRECTION('',(1.00000000000000,0.00000000000000,0.00000000000000));
#23=AXIS2_PLACEMENT_3D('',#20,#21,#22);
#24=CARTESIAN_POINT('',(1.00000000000000,2.90650000000000,0.0734999999999997));
#25=VERTEX_POINT('',#24);
#26=CARTESIAN_POINT('',(0.980000000000000,2.90650000000000,0.0934999999999993));
#27=VERTEX_POINT('',#26);
#28=CARTESIAN_POINT('',(0.980000000000000,2.90650000000000,0.0734999999999997));
#29=DIRECTION('',(-0.00000000000000,-1.00000000000000,-0.00000000000000));
#30=DIRECTION('',(-1.00000000000000,0.00000000000000,0.00000000000000));
#31=AXIS2_PLACEMENT_3D('',#28,#29,#30);
#32=CIRCLE('',#31,0.0200000000000000);
#33=EDGE_CURVE('',#25,#27,#32,.T.);
#34=ORIENTED_EDGE('',*,*,#33,.T.);
#35=CARTESIAN_POINT('',(0.980000000000000,-3.09350000000000,0.0935000000000001));
#36=VERTEX_POINT('',#35);
#37=CARTESIAN_POINT('',(0.980000000000000,-0.0934999999999997,0.0934999999999997));
#38=DIRECTION('',(0.00000000000000,-1.00000000000000,1.38777878078145E-16));
#39=VECTOR('',#38,1.00000000000000);
#40=LINE('',#37,#39);
#41=EDGE_CURVE('',#27,#36,#40,.T.);
#42=ORIENTED_EDGE('',*,*,#41,.T.);
#43=CARTESIAN_POINT('',(1.00000000000000,-3.09350000000000,0.0735000000000005));
#44=VERTEX_POINT('',#43);
#45=CARTESIAN_POINT('',(0.980000000000000,-3.09350000000000,0.0735000000000005));
#46=DIRECTION('',(0.00000000000000,1.00000000000000,0.00000000000000));
#47=DIRECTION('',(-1.00000000000000,0.00000000000000,0.00000000000000));
#48=AXIS2_PLACEMENT_3D('',#45,#46,#47);
#49=CIRCLE('',#48,0.0200000000000000);
#50=EDGE_CURVE('',#36,#44,#49,.T.);
#51=ORIENTED_EDGE('',*,*,#50,.T.);
#52=CARTESIAN_POINT('',(1.00000000000000,-0.0934999999999997,0.0735000000000001));
#53=DIRECTION('',(0.00000000000000,1.00000000000000,-1.38777878078145E-16));
#54=VECTOR('',#53,1.00000000000000);
#55=LINE('',#52,#54);
#56=EDGE_CURVE('',#44,#25,#55,.T.);
#57=ORIENTED_EDGE('',*,*,#56,.T.);
#58=EDGE_LOOP('',(#34,#42,#51,#57));
#59=FACE_OUTER_BOUND('',#58,.T.);
#60=CARTESIAN_POINT('',(0.980000000000000,-0.0934999999999997,0.0735000000000001));
#61=DIRECTION('',(0.00000000000000,1.00000000000000,-1.38777878078145E-16));
#62=DIRECTION('',(-1.00000000000000,0.00000000000000,0.00000000000000));
#63=AXIS2_PLACEMENT_3D('',#60,#61,#62);
#64=CYLINDRICAL_SURFACE('',#63,0.0200000000000000);
#65=ADVANCED_FACE('',(#59),#64,.T.);
#66=CARTESIAN_POINT('',(-0.980000000000000,2.90650000000000,0.0934999999999993));
#67=VERTEX_POINT('',#66);
#68=CARTESIAN_POINT('',(0.980000000000000,2.90650000000000,0.0934999999999993));
#69=DIRECTION('',(-1.00000000000000,0.00000000000000,0.00000000000000));
#70=VECTOR('',#69,1.00000000000000);
#71=LINE('',#68,#70);
#72=EDGE_CURVE('',#27,#67,#71,.T.);
#73=ORIENTED_EDGE('',*,*,#72,.T.);
#74=CARTESIAN_POINT('',(-0.980000000000000,-3.09350000000000,0.0935000000000001));
#75=VERTEX_POINT('',#74);
#76=CARTESIAN_POINT('',(-0.980000000000000,-0.0934999999999997,0.0934999999999997));
#77=DIRECTION('',(0.00000000000000,1.00000000000000,-1.38777878078145E-16));
#78=VECTOR('',#77,1.00000000000000);
#79=LINE('',#76,#78);
#80=EDGE_CURVE('',#75,#67,#79,.T.);
#81=ORIENTED_EDGE('',*,*,#80,.F.);
#82=CARTESIAN_POINT('',(0.980000000000000,-3.09350000000000,0.0935000000000001));
#83=DIRECTION('',(1.00000000000000,0.00000000000000,0.00000000000000));
#84=VECTOR('',#83,1.00000000000000);
#85=LINE('',#82,#84);
#86=EDGE_CURVE('',#75,#36,#85,.T.);
#87=ORIENTED_EDGE('',*,*,#86,.T.);
#88=ORIENTED_EDGE('',*,*,#41,.F.);
#89=EDGE_LOOP('',(#73,#81,#87,#88));
#90=FACE_OUTER_BOUND('',#89,.T.);
#91=CARTESIAN_POINT('',(2.22044604925031E-16,-0.0934999999999997,0.0934999999999997));
#92=DIRECTION('',(0.00000000000000,1.38777878078145E-16,1.00000000000000));
#93=DIRECTION('',(1.00000000000000,-0.00000000000000,-0.00000000000000));
#94=AXIS2_PLACEMENT_3D('',#91,#92,#93);
#95=PLANE('',#94);
#96=ADVANCED_FACE('',(#90),#95,.T.);
#97=CARTESIAN_POINT('',(-1.00000000000000,2.90650000000000,0.0734999999999997));
#98=VERTEX_POINT('',#97);
#99=CARTESIAN_POINT('',(-0.980000000000000,2.90650000000000,0.0734999999999997));
#100=DIRECTION('',(0.00000000000000,-1.00000000000000,6.12323399573677E-17));
#101=DIRECTION('',(-1.00000000000000,0.00000000000000,0.00000000000000));
#102=AXIS2_PLACEMENT_3D('',#99,#100,#101);
#103=CIRCLE('',#102,0.0200000000000000);
#104=EDGE_CURVE('',#67,#98,#103,.T.);
#105=ORIENTED_EDGE('',*,*,#104,.T.);
#106=CARTESIAN_POINT('',(-1.00000000000000,-3.09350000000000,0.0735000000000005));
#107=VERTEX_POINT('',#106);
#108=CARTESIAN_POINT('',(-1.00000000000000,-0.0934999999999997,0.0735000000000001));
#109=DIRECTION('',(0.00000000000000,-1.00000000000000,1.38777878078145E-16));
#110=VECTOR('',#109,1.00000000000000);
#111=LINE('',#108,#110);
#112=EDGE_CURVE('',#98,#107,#111,.T.);
#113=ORIENTED_EDGE('',*,*,#112,.T.);
#114=CARTESIAN_POINT('',(-0.980000000000000,-3.09350000000000,0.0735000000000005));
#115=DIRECTION('',(0.00000000000000,1.00000000000000,-6.12323399573677E-17));
#116=DIRECTION('',(-1.00000000000000,0.00000000000000,0.00000000000000));
#117=AXIS2_PLACEMENT_3D('',#114,#115,#116);
#118=CIRCLE('',#117,0.0200000000000000);
#119=EDGE_CURVE('',#107,#75,#118,.T.);
#120=ORIENTED_EDGE('',*,*,#119,.T.);
#121=ORIENTED_EDGE('',*,*,#80,.T.);
#122=EDGE_LOOP('',(#105,#113,#120,#121));
#123=FACE_OUTER_BOUND('',#122,.T.);
#124=CARTESIAN_POINT('',(-0.980000000000000,-0.0934999999999997,0.0735000000000001));
#125=DIRECTION('',(0.00000000000000,1.00000000000000,-1.38777878078145E-16));
#126=DIRECTION('',(0.707106781186546,0.00000000000000,-0.707106781186549));
#127=AXIS2_PLACEMENT_3D('',#124,#125,#126);
#128=CYLINDRICAL_SURFACE('',#127,0.0200000000000000);
#129=ADVANCED_FACE('',(#123),#128,.T.);
#130=CARTESIAN_POINT('',(-1.00000000000000,2.90650000000000,-0.0735000000000014));
#131=VERTEX_POINT('',#130);
#132=CARTESIAN_POINT('',(-1.00000000000000,2.90650000000000,0.0734999999999997));
#133=DIRECTION('',(0.00000000000000,-9.44067197810500E-17,-1.00000000000000));
#134=VECTOR('',#133,1.00000000000000);
#135=LINE('',#132,#134);
#136=EDGE_CURVE('',#98,#131,#135,.T.);
#137=ORIENTED_EDGE('',*,*,#136,.T.);
#138=CARTESIAN_POINT('',(-1.00000000000000,-3.09350000000000,-0.0735000000000006));
#139=VERTEX_POINT('',#138);
#140=CARTESIAN_POINT('',(-1.00000000000000,-0.0934999999999997,-0.0735000000000010));
#141=DIRECTION('',(0.00000000000000,1.00000000000000,-1.38777878078145E-16));
#142=VECTOR('',#141,1.00000000000000);
#143=LINE('',#140,#142);
#144=EDGE_CURVE('',#139,#131,#143,.T.);
#145=ORIENTED_EDGE('',*,*,#144,.F.);
#146=CARTESIAN_POINT('',(-1.00000000000000,-3.09350000000000,0.0735000000000005));
#147=DIRECTION('',(0.00000000000000,9.44067197810500E-17,1.00000000000000));
#148=VECTOR('',#147,1.00000000000000);
#149=LINE('',#146,#148);
#150=EDGE_CURVE('',#139,#107,#149,.T.);
#151=ORIENTED_EDGE('',*,*,#150,.T.);
#152=ORIENTED_EDGE('',*,*,#112,.F.);
#153=EDGE_LOOP('',(#137,#145,#151,#152));
#154=FACE_OUTER_BOUND('',#153,.T.);
#155=CARTESIAN_POINT('',(-1.00000000000000,-0.0934999999999997,-4.44089209850063E-16));
#156=DIRECTION('',(-1.00000000000000,0.00000000000000,-0.00000000000000));
#157=DIRECTION('',(-0.00000000000000,9.44067197810500E-17,1.00000000000000));
#158=AXIS2_PLACEMENT_3D('',#155,#156,#157);
#159=PLANE('',#158);
#160=ADVANCED_FACE('',(#154),#159,.T.);
#161=CARTESIAN_POINT('',(-0.980000000000000,2.90650000000000,-0.0935000000000010));
#162=VERTEX_POINT('',#161);
#163=CARTESIAN_POINT('',(-0.980000000000000,2.90650000000000,-0.0735000000000014));
#164=DIRECTION('',(0.00000000000000,-1.00000000000000,6.12323399573677E-17));
#165=DIRECTION('',(0.00000000000000,-6.12323399573677E-17,-1.00000000000000));
#166=AXIS2_PLACEMENT_3D('',#163,#164,#165);
#167=CIRCLE('',#166,0.0200000000000000);
#168=EDGE_CURVE('',#131,#162,#167,.T.);
#169=ORIENTED_EDGE('',*,*,#168,.T.);
#170=CARTESIAN_POINT('',(-0.980000000000000,-3.09350000000000,-0.0935000000000002));
#171=VERTEX_POINT('',#170);
#172=CARTESIAN_POINT('',(-0.980000000000000,-0.0934999999999997,-0.0935000000000006));
#173=DIRECTION('',(0.00000000000000,-1.00000000000000,1.38777878078145E-16));
#174=VECTOR('',#173,1.00000000000000);
#175=LINE('',#172,#174);
#176=EDGE_CURVE('',#162,#171,#175,.T.);
#177=ORIENTED_EDGE('',*,*,#176,.T.);
#178=CARTESIAN_POINT('',(-0.980000000000000,-3.09350000000000,-0.0735000000000006));
#179=DIRECTION('',(0.00000000000000,1.00000000000000,-6.12323399573677E-17));
#180=DIRECTION('',(0.00000000000000,-6.12323399573677E-17,-1.00000000000000));
#181=AXIS2_PLACEMENT_3D('',#178,#179,#180);
#182=CIRCLE('',#181,0.0200000000000000);
#183=EDGE_CURVE('',#171,#139,#182,.T.);
#184=ORIENTED_EDGE('',*,*,#183,.T.);
#185=ORIENTED_EDGE('',*,*,#144,.T.);
#186=EDGE_LOOP('',(#169,#177,#184,#185));
#187=FACE_OUTER_BOUND('',#186,.T.);
#188=CARTESIAN_POINT('',(-0.980000000000000,-0.0934999999999997,-0.0735000000000010));
#189=DIRECTION('',(0.00000000000000,1.00000000000000,-1.38777878078145E-16));
#190=DIRECTION('',(0.707106781186546,0.00000000000000,0.707106781186549));
#191=AXIS2_PLACEMENT_3D('',#188,#189,#190);
#192=CYLINDRICAL_SURFACE('',#191,0.0200000000000000);
#193=ADVANCED_FACE('',(#187),#192,.T.);
#194=CARTESIAN_POINT('',(0.980000000000000,2.90650000000000,-0.0935000000000010));
#195=VERTEX_POINT('',#194);
#196=CARTESIAN_POINT('',(-0.980000000000000,2.90650000000000,-0.0935000000000010));
#197=DIRECTION('',(1.00000000000000,0.00000000000000,0.00000000000000));
#198=VECTOR('',#197,1.00000000000000);
#199=LINE('',#196,#198);
#200=EDGE_CURVE('',#162,#195,#199,.T.);
#201=ORIENTED_EDGE('',*,*,#200,.T.);
#202=CARTESIAN_POINT('',(0.980000000000000,-3.09350000000000,-0.0935000000000002));
#203=VERTEX_POINT('',#202);
#204=CARTESIAN_POINT('',(0.980000000000000,-0.0934999999999997,-0.0935000000000006));
#205=DIRECTION('',(0.00000000000000,1.00000000000000,-1.38777878078145E-16));
#206=VECTOR('',#205,1.00000000000000);
#207=LINE('',#204,#206);
#208=EDGE_CURVE('',#203,#195,#207,.T.);
#209=ORIENTED_EDGE('',*,*,#208,.F.);
#210=CARTESIAN_POINT('',(-0.980000000000000,-3.09350000000000,-0.0935000000000002));
#211=DIRECTION('',(-1.00000000000000,-0.00000000000000,-0.00000000000000));
#212=VECTOR('',#211,1.00000000000000);
#213=LINE('',#210,#212);
#214=EDGE_CURVE('',#203,#171,#213,.T.);
#215=ORIENTED_EDGE('',*,*,#214,.T.);
#216=ORIENTED_EDGE('',*,*,#176,.F.);
#217=EDGE_LOOP('',(#201,#209,#215,#216));
#218=FACE_OUTER_BOUND('',#217,.T.);
#219=CARTESIAN_POINT('',(2.22044604925031E-16,-0.0934999999999997,-0.0935000000000006));
#220=DIRECTION('',(0.00000000000000,-1.38777878078145E-16,-1.00000000000000));
#221=DIRECTION('',(-1.00000000000000,-0.00000000000000,-0.00000000000000));
#222=AXIS2_PLACEMENT_3D('',#219,#220,#221);
#223=PLANE('',#222);
#224=ADVANCED_FACE('',(#218),#223,.T.);
#225=CARTESIAN_POINT('',(1.00000000000000,2.90650000000000,-0.0735000000000014));
#226=VERTEX_POINT('',#225);
#227=CARTESIAN_POINT('',(0.980000000000000,2.90650000000000,-0.0735000000000014));
#228=DIRECTION('',(0.00000000000000,-1.00000000000000,6.12323399573677E-17));
#229=DIRECTION('',(0.00000000000000,6.12323399573677E-17,1.00000000000000));
#230=AXIS2_PLACEMENT_3D('',#227,#228,#229);
#231=CIRCLE('',#230,0.0200000000000000);
#232=EDGE_CURVE('',#195,#226,#231,.T.);
#233=ORIENTED_EDGE('',*,*,#232,.T.);
#234=CARTESIAN_POINT('',(1.00000000000000,-3.09350000000000,-0.0735000000000006));
#235=VERTEX_POINT('',#234);
#236=CARTESIAN_POINT('',(1.00000000000000,-0.0934999999999997,-0.0735000000000010));
#237=DIRECTION('',(0.00000000000000,-1.00000000000000,1.38777878078145E-16));
#238=VECTOR('',#237,1.00000000000000);
#239=LINE('',#236,#238);
#240=EDGE_CURVE('',#226,#235,#239,.T.);
#241=ORIENTED_EDGE('',*,*,#240,.T.);
#242=CARTESIAN_POINT('',(0.980000000000000,-3.09350000000000,-0.0735000000000006));
#243=DIRECTION('',(0.00000000000000,1.00000000000000,-6.12323399573677E-17));
#244=DIRECTION('',(0.00000000000000,6.12323399573677E-17,1.00000000000000));
#245=AXIS2_PLACEMENT_3D('',#242,#243,#244);
#246=CIRCLE('',#245,0.0200000000000000);
#247=EDGE_CURVE('',#235,#203,#246,.T.);
#248=ORIENTED_EDGE('',*,*,#247,.T.);
#249=ORIENTED_EDGE('',*,*,#208,.T.);
#250=EDGE_LOOP('',(#233,#241,#248,#249));
#251=FACE_OUTER_BOUND('',#250,.T.);
#252=CARTESIAN_POINT('',(0.980000000000000,-0.0934999999999997,-0.0735000000000010));
#253=DIRECTION('',(0.00000000000000,1.00000000000000,-1.38777878078145E-16));
#254=DIRECTION('',(0.00000000000000,1.38777878078145E-16,1.00000000000000));
#255=AXIS2_PLACEMENT_3D('',#252,#253,#254);
#256=CYLINDRICAL_SURFACE('',#255,0.0200000000000000);
#257=ADVANCED_FACE('',(#251),#256,.T.);
#258=CARTESIAN_POINT('',(1.00000000000000,2.90650000000000,-0.0735000000000014));
#259=DIRECTION('',(0.00000000000000,9.44067197810500E-17,1.00000000000000));
#260=VECTOR('',#259,1.00000000000000);
#261=LINE('',#258,#260);
#262=EDGE_CURVE('',#226,#25,#261,.T.);
#263=ORIENTED_EDGE('',*,*,#262,.T.);
#264=ORIENTED_EDGE('',*,*,#56,.F.);
#265=CARTESIAN_POINT('',(1.00000000000000,-3.09350000000000,-0.0735000000000006));
#266=DIRECTION('',(-0.00000000000000,-9.44067197810500E-17,-1.00000000000000));
#267=VECTOR('',#266,1.00000000000000);
#268=LINE('',#265,#267);
#269=EDGE_CURVE('',#44,#235,#268,.T.);
#270=ORIENTED_EDGE('',*,*,#269,.T.);
#271=ORIENTED_EDGE('',*,*,#240,.F.);
#272=EDGE_LOOP('',(#263,#264,#270,#271));
#273=FACE_OUTER_BOUND('',#272,.T.);
#274=CARTESIAN_POINT('',(1.00000000000000,-0.0934999999999997,-4.44089209850063E-16));
#275=DIRECTION('',(1.00000000000000,-0.00000000000000,0.00000000000000));
#276=DIRECTION('',(-0.00000000000000,-9.44067197810500E-17,-1.00000000000000));
#277=AXIS2_PLACEMENT_3D('',#274,#275,#276);
#278=PLANE('',#277);
#279=ADVANCED_FACE('',(#273),#278,.T.);
#280=ORIENTED_EDGE('',*,*,#33,.F.);
#281=ORIENTED_EDGE('',*,*,#262,.F.);
#282=ORIENTED_EDGE('',*,*,#232,.F.);
#283=ORIENTED_EDGE('',*,*,#200,.F.);
#284=ORIENTED_EDGE('',*,*,#168,.F.);
#285=ORIENTED_EDGE('',*,*,#136,.F.);
#286=ORIENTED_EDGE('',*,*,#104,.F.);
#287=ORIENTED_EDGE('',*,*,#72,.F.);
#288=EDGE_LOOP('',(#280,#281,#282,#283,#284,#285,#286,#287));
#289=FACE_OUTER_BOUND('',#288,.T.);
#290=CARTESIAN_POINT('',(1.00000000000000,2.90650000000000,-0.0275882250000011));
#291=DIRECTION('',(-4.34334888764078E-18,1.00000000000000,-1.37283920138219E-16));
#292=DIRECTION('',(-1.00000000000000,-4.34334888764078E-18,0.00000000000000));
#293=AXIS2_PLACEMENT_3D('',#290,#291,#292);
#294=PLANE('',#293);
#295=ADVANCED_FACE('',(#289),#294,.T.);
#296=ORIENTED_EDGE('',*,*,#247,.F.);
#297=ORIENTED_EDGE('',*,*,#269,.F.);
#298=ORIENTED_EDGE('',*,*,#50,.F.);
#299=ORIENTED_EDGE('',*,*,#86,.F.);
#300=ORIENTED_EDGE('',*,*,#119,.F.);
#301=ORIENTED_EDGE('',*,*,#150,.F.);
#302=ORIENTED_EDGE('',*,*,#183,.F.);
#303=ORIENTED_EDGE('',*,*,#214,.F.);
#304=EDGE_LOOP('',(#296,#297,#298,#299,#300,#301,#302,#303));
#305=FACE_OUTER_BOUND('',#304,.T.);
#306=CARTESIAN_POINT('',(1.00000000000000,-3.09350000000000,-0.0275882250000002));
#307=DIRECTION('',(-4.34334888764078E-18,1.00000000000000,-1.37283920138219E-16));
#308=DIRECTION('',(-1.00000000000000,-4.34334888764078E-18,0.00000000000000));
#309=AXIS2_PLACEMENT_3D('',#306,#307,#308);
#310=PLANE('',#309);
#311=ADVANCED_FACE('',(#305),#310,.F.);
#312=CLOSED_SHELL('',(#65,#96,#129,#160,#193,#224,#257,#279,#295,#311));
#313=MANIFOLD_SOLID_BREP('',#312);
#314=COLOUR_RGB('',1.00000000000000,0.00000000000000,0.00000000000000);
#315=FILL_AREA_STYLE_COLOUR('',#314);
#316=FILL_AREA_STYLE('',(#315));
#317=SURFACE_STYLE_FILL_AREA(#316);
#318=SURFACE_SIDE_STYLE('',(#317));
#319=SURFACE_STYLE_USAGE(.BOTH.,#318);
#320=PRESENTATION_STYLE_ASSIGNMENT((#319));
#321=STYLED_ITEM('',(#320),#313);
#322=ADVANCED_BREP_SHAPE_REPRESENTATION('',(#313,#23),#18);
#323=PRODUCT('','','',(#2));
#324=PRODUCT_DEFINITION_FORMATION_WITH_SPECIFIED_SOURCE('','',#323,.NOT_KNOWN.);
#325=PRODUCT_CATEGORY('part','');
#326=PRODUCT_RELATED_PRODUCT_CATEGORY('detail','',(#323));
#327=PRODUCT_CATEGORY_RELATIONSHIP('','',#325,#326);
#328=PRODUCT_DEFINITION('','',#324,#1);
#329=PRODUCT_DEFINITION_SHAPE('NONE','NONE',#328);
#330=SHAPE_DEFINITION_REPRESENTATION(#329,#322);
#331=PRESENTATION_LAYER_ASSIGNMENT('1','Unnamed [1]',(#313));
ENDSEC;
END-ISO-10303-21;
