ISO-10303-21;
HEADER;
FILE_DESCRIPTION(('', 'CAx-IF Rec.Pracs.---Representation and Presentation of Product Manufacturing Information (PMI)---4.0---2014-10-13'),'2;1');
FILE_NAME('C:/Program Files/Kubotek/KeyCreatorPro.2021.SP1/STEP/SG2431.STP', '2021-04-14T19:24:57',(''), (''), 'Kubotek Kosmos Version 3.0.7268.7268', 'KeyCreator Pro', '');
FILE_SCHEMA(('AP242_MANAGED_MODEL_BASED_3D_ENGINEERING_MIM_LF  { 1 0 10303 442 1 1 4 }'));
ENDSEC;
DATA;
#1=PRODUCT_DEFINITION_CONTEXT('',#4,'design');
#2=PRODUCT_CONTEXT('',#4,'mechanical');
#3=APPLICATION_PROTOCOL_DEFINITION('international standard','ap242_managed_model_based_3d_engineering',2011,#4);
#4=APPLICATION_CONTEXT('managed model based 3d engineering');
#10=DIMENSIONAL_EXPONENTS(1.0,0.0,0.0,0.0,0.0,0.0,0.0);
#11=DIMENSIONAL_EXPONENTS(0.0,0.0,0.0,0.0,0.0,0.0,0.0);
#12=(LENGTH_UNIT()NAMED_UNIT(#10)SI_UNIT(.MILLI.,.METRE.));
#13=(NAMED_UNIT(#11)PLANE_ANGLE_UNIT()SI_UNIT($,.RADIAN.));
#14=(NAMED_UNIT(#11)SI_UNIT($,.STERADIAN.)SOLID_ANGLE_UNIT());
#15=LENGTH_MEASURE_WITH_UNIT(LENGTH_MEASURE(25.4),#12);
#16= (CONVERSION_BASED_UNIT('INCH',#15)LENGTH_UNIT()NAMED_UNIT(#10));
#17=UNCERTAINTY_MEASURE_WITH_UNIT(LENGTH_MEASURE(1.0E-006),#16,'','');
#18=(GEOMETRIC_REPRESENTATION_CONTEXT(3)GLOBAL_UNCERTAINTY_ASSIGNED_CONTEXT((#17))GLOBAL_UNIT_ASSIGNED_CONTEXT((#16,#13,#14))REPRESENTATION_CONTEXT('NONE','WORKSPACE'));
#20=CARTESIAN_POINT('',(0.00000000000000,0.00000000000000,0.00000000000000));
#21=DIRECTION('',(0.00000000000000,0.00000000000000,1.00000000000000));
#22=DIRECTION('',(1.00000000000000,0.00000000000000,0.00000000000000));
#23=AXIS2_PLACEMENT_3D('',#20,#21,#22);
#24=CARTESIAN_POINT('',(-1.12500000000000,3.04650000000000,-0.0465000000000003));
#25=VERTEX_POINT('',#24);
#26=CARTESIAN_POINT('',(1.12500000000000,3.04650000000000,-0.0465000000000003));
#27=VERTEX_POINT('',#26);
#28=CARTESIAN_POINT('',(-1.12500000000000,3.04650000000000,-0.0465000000000003));
#29=DIRECTION('',(1.00000000000000,0.00000000000000,0.00000000000000));
#30=VECTOR('',#29,1.00000000000000);
#31=LINE('',#28,#30);
#32=EDGE_CURVE('',#25,#27,#31,.T.);
#33=ORIENTED_EDGE('',*,*,#32,.T.);
#34=CARTESIAN_POINT('',(1.12500000000000,-2.95350000000000,-0.0464999999999997));
#35=VERTEX_POINT('',#34);
#36=CARTESIAN_POINT('',(1.12500000000000,0.0465000000000000,-0.0465000000000000));
#37=DIRECTION('',(0.00000000000000,-1.00000000000000,1.08709337827880E-16));
#38=VECTOR('',#37,1.00000000000000);
#39=LINE('',#36,#38);
#40=EDGE_CURVE('',#27,#35,#39,.T.);
#41=ORIENTED_EDGE('',*,*,#40,.T.);
#42=CARTESIAN_POINT('',(-1.12500000000000,-2.95350000000000,-0.0464999999999997));
#43=VERTEX_POINT('',#42);
#44=CARTESIAN_POINT('',(-1.12500000000000,-2.95350000000000,-0.0464999999999997));
#45=DIRECTION('',(-1.00000000000000,-0.00000000000000,-0.00000000000000));
#46=VECTOR('',#45,1.00000000000000);
#47=LINE('',#44,#46);
#48=EDGE_CURVE('',#35,#43,#47,.T.);
#49=ORIENTED_EDGE('',*,*,#48,.T.);
#50=CARTESIAN_POINT('',(-1.12500000000000,0.0465000000000000,-0.0465000000000000));
#51=DIRECTION('',(0.00000000000000,1.00000000000000,-1.08709337827880E-16));
#52=VECTOR('',#51,1.00000000000000);
#53=LINE('',#50,#52);
#54=EDGE_CURVE('',#43,#25,#53,.T.);
#55=ORIENTED_EDGE('',*,*,#54,.T.);
#56=EDGE_LOOP('',(#33,#41,#49,#55));
#57=FACE_OUTER_BOUND('',#56,.T.);
#58=CARTESIAN_POINT('',(0.00000000000000,0.0465000000000000,-0.0465000000000000));
#59=DIRECTION('',(0.00000000000000,-1.08709337827880E-16,-1.00000000000000));
#60=DIRECTION('',(-1.00000000000000,-0.00000000000000,-0.00000000000000));
#61=AXIS2_PLACEMENT_3D('',#58,#59,#60);
#62=PLANE('',#61);
#63=ADVANCED_FACE('',(#57),#62,.T.);
#64=CARTESIAN_POINT('',(1.12500000000000,3.04650000000000,0.0464999999999997));
#65=VERTEX_POINT('',#64);
#66=CARTESIAN_POINT('',(1.12500000000000,3.04650000000000,-0.0465000000000003));
#67=DIRECTION('',(0.00000000000000,7.46117624076046E-17,1.00000000000000));
#68=VECTOR('',#67,1.00000000000000);
#69=LINE('',#66,#68);
#70=EDGE_CURVE('',#27,#65,#69,.T.);
#71=ORIENTED_EDGE('',*,*,#70,.T.);
#72=CARTESIAN_POINT('',(1.12500000000000,-2.95350000000000,0.0465000000000003));
#73=VERTEX_POINT('',#72);
#74=CARTESIAN_POINT('',(1.12500000000000,0.0465000000000000,0.0465000000000000));
#75=DIRECTION('',(0.00000000000000,1.00000000000000,-1.08709337827880E-16));
#76=VECTOR('',#75,1.00000000000000);
#77=LINE('',#74,#76);
#78=EDGE_CURVE('',#73,#65,#77,.T.);
#79=ORIENTED_EDGE('',*,*,#78,.F.);
#80=CARTESIAN_POINT('',(1.12500000000000,-2.95350000000000,-0.0464999999999997));
#81=DIRECTION('',(-0.00000000000000,-7.46117624076046E-17,-1.00000000000000));
#82=VECTOR('',#81,1.00000000000000);
#83=LINE('',#80,#82);
#84=EDGE_CURVE('',#73,#35,#83,.T.);
#85=ORIENTED_EDGE('',*,*,#84,.T.);
#86=ORIENTED_EDGE('',*,*,#40,.F.);
#87=EDGE_LOOP('',(#71,#79,#85,#86));
#88=FACE_OUTER_BOUND('',#87,.T.);
#89=CARTESIAN_POINT('',(1.12500000000000,0.0465000000000000,0.00000000000000));
#90=DIRECTION('',(1.00000000000000,-0.00000000000000,0.00000000000000));
#91=DIRECTION('',(-0.00000000000000,-7.46117624076046E-17,-1.00000000000000));
#92=AXIS2_PLACEMENT_3D('',#89,#90,#91);
#93=PLANE('',#92);
#94=ADVANCED_FACE('',(#88),#93,.T.);
#95=CARTESIAN_POINT('',(-1.12500000000000,3.04650000000000,0.0464999999999997));
#96=VERTEX_POINT('',#95);
#97=CARTESIAN_POINT('',(1.12500000000000,3.04650000000000,0.0464999999999997));
#98=DIRECTION('',(-1.00000000000000,0.00000000000000,0.00000000000000));
#99=VECTOR('',#98,1.00000000000000);
#100=LINE('',#97,#99);
#101=EDGE_CURVE('',#65,#96,#100,.T.);
#102=ORIENTED_EDGE('',*,*,#101,.T.);
#103=CARTESIAN_POINT('',(-1.12500000000000,-2.95350000000000,0.0465000000000003));
#104=VERTEX_POINT('',#103);
#105=CARTESIAN_POINT('',(-1.12500000000000,0.0465000000000000,0.0465000000000000));
#106=DIRECTION('',(0.00000000000000,-1.00000000000000,1.08709337827880E-16));
#107=VECTOR('',#106,1.00000000000000);
#108=LINE('',#105,#107);
#109=EDGE_CURVE('',#96,#104,#108,.T.);
#110=ORIENTED_EDGE('',*,*,#109,.T.);
#111=CARTESIAN_POINT('',(1.12500000000000,-2.95350000000000,0.0465000000000003));
#112=DIRECTION('',(1.00000000000000,0.00000000000000,0.00000000000000));
#113=VECTOR('',#112,1.00000000000000);
#114=LINE('',#111,#113);
#115=EDGE_CURVE('',#104,#73,#114,.T.);
#116=ORIENTED_EDGE('',*,*,#115,.T.);
#117=ORIENTED_EDGE('',*,*,#78,.T.);
#118=EDGE_LOOP('',(#102,#110,#116,#117));
#119=FACE_OUTER_BOUND('',#118,.T.);
#120=CARTESIAN_POINT('',(0.00000000000000,0.0465000000000000,0.0465000000000000));
#121=DIRECTION('',(0.00000000000000,1.08709337827880E-16,1.00000000000000));
#122=DIRECTION('',(1.00000000000000,-0.00000000000000,-0.00000000000000));
#123=AXIS2_PLACEMENT_3D('',#120,#121,#122);
#124=PLANE('',#123);
#125=ADVANCED_FACE('',(#119),#124,.T.);
#126=CARTESIAN_POINT('',(-1.12500000000000,3.04650000000000,0.0464999999999997));
#127=DIRECTION('',(0.00000000000000,-7.46117624076046E-17,-1.00000000000000));
#128=VECTOR('',#127,1.00000000000000);
#129=LINE('',#126,#128);
#130=EDGE_CURVE('',#96,#25,#129,.T.);
#131=ORIENTED_EDGE('',*,*,#130,.T.);
#132=ORIENTED_EDGE('',*,*,#54,.F.);
#133=CARTESIAN_POINT('',(-1.12500000000000,-2.95350000000000,0.0465000000000003));
#134=DIRECTION('',(0.00000000000000,7.46117624076046E-17,1.00000000000000));
#135=VECTOR('',#134,1.00000000000000);
#136=LINE('',#133,#135);
#137=EDGE_CURVE('',#43,#104,#136,.T.);
#138=ORIENTED_EDGE('',*,*,#137,.T.);
#139=ORIENTED_EDGE('',*,*,#109,.F.);
#140=EDGE_LOOP('',(#131,#132,#138,#139));
#141=FACE_OUTER_BOUND('',#140,.T.);
#142=CARTESIAN_POINT('',(-1.12500000000000,0.0465000000000000,0.00000000000000));
#143=DIRECTION('',(-1.00000000000000,0.00000000000000,-0.00000000000000));
#144=DIRECTION('',(-0.00000000000000,7.46117624076046E-17,1.00000000000000));
#145=AXIS2_PLACEMENT_3D('',#142,#143,#144);
#146=PLANE('',#145);
#147=ADVANCED_FACE('',(#141),#146,.T.);
#148=ORIENTED_EDGE('',*,*,#32,.F.);
#149=ORIENTED_EDGE('',*,*,#130,.F.);
#150=ORIENTED_EDGE('',*,*,#101,.F.);
#151=ORIENTED_EDGE('',*,*,#70,.F.);
#152=EDGE_LOOP('',(#148,#149,#150,#151));
#153=FACE_OUTER_BOUND('',#152,.T.);
#154=CARTESIAN_POINT('',(-1.12500000000000,3.04650000000000,0.0174537749999997));
#155=DIRECTION('',(1.40065521166754E-18,1.00000000000000,-1.08498582044723E-16));
#156=DIRECTION('',(-1.00000000000000,1.40065521166754E-18,0.00000000000000));
#157=AXIS2_PLACEMENT_3D('',#154,#155,#156);
#158=PLANE('',#157);
#159=ADVANCED_FACE('',(#153),#158,.T.);
#160=ORIENTED_EDGE('',*,*,#115,.F.);
#161=ORIENTED_EDGE('',*,*,#137,.F.);
#162=ORIENTED_EDGE('',*,*,#48,.F.);
#163=ORIENTED_EDGE('',*,*,#84,.F.);
#164=EDGE_LOOP('',(#160,#161,#162,#163));
#165=FACE_OUTER_BOUND('',#164,.T.);
#166=CARTESIAN_POINT('',(-1.12500000000000,-2.95350000000000,0.0174537750000003));
#167=DIRECTION('',(1.40065521166754E-18,1.00000000000000,-1.08498582044723E-16));
#168=DIRECTION('',(-1.00000000000000,1.40065521166754E-18,0.00000000000000));
#169=AXIS2_PLACEMENT_3D('',#166,#167,#168);
#170=PLANE('',#169);
#171=ADVANCED_FACE('',(#165),#170,.F.);
#172=CLOSED_SHELL('',(#63,#94,#125,#147,#159,#171));
#173=MANIFOLD_SOLID_BREP('',#172);
#174=COLOUR_RGB('',1.00000000000000,0.00000000000000,0.00000000000000);
#175=FILL_AREA_STYLE_COLOUR('',#174);
#176=FILL_AREA_STYLE('',(#175));
#177=SURFACE_STYLE_FILL_AREA(#176);
#178=SURFACE_SIDE_STYLE('',(#177));
#179=SURFACE_STYLE_USAGE(.BOTH.,#178);
#180=PRESENTATION_STYLE_ASSIGNMENT((#179));
#181=STYLED_ITEM('',(#180),#173);
#182=ADVANCED_BREP_SHAPE_REPRESENTATION('',(#173,#23),#18);
#183=PRODUCT('','','',(#2));
#184=PRODUCT_DEFINITION_FORMATION_WITH_SPECIFIED_SOURCE('','',#183,.NOT_KNOWN.);
#185=PRODUCT_CATEGORY('part','');
#186=PRODUCT_RELATED_PRODUCT_CATEGORY('detail','',(#183));
#187=PRODUCT_CATEGORY_RELATIONSHIP('','',#185,#186);
#188=PRODUCT_DEFINITION('','',#184,#1);
#189=PRODUCT_DEFINITION_SHAPE('NONE','NONE',#188);
#190=SHAPE_DEFINITION_REPRESENTATION(#189,#182);
#191=PRESENTATION_LAYER_ASSIGNMENT('1','Unnamed [1]',(#173));
ENDSEC;
END-ISO-10303-21;
