ISO-10303-21;
HEADER;
FILE_DESCRIPTION(('', 'CAx-IF Rec.Pracs.---Representation and Presentation of Product Manufacturing Information (PMI)---4.0---2014-10-13'),'2;1');
FILE_NAME('C:/Program Files/Kubotek/KeyCreatorPro.2021.SP1/STEP/SG2430.STP', '2021-04-14T20:25:59',(''), (''), 'Kubotek Kosmos Version 3.0.7268.7268', 'KeyCreator Pro', '');
FILE_SCHEMA(('AP242_MANAGED_MODEL_BASED_3D_ENGINEERING_MIM_LF  { 1 0 10303 442 1 1 4 }'));
ENDSEC;
DATA;
#1=PRODUCT_DEFINITION_CONTEXT('',#4,'design');
#2=PRODUCT_CONTEXT('',#4,'mechanical');
#3=APPLICATION_PROTOCOL_DEFINITION('international standard','ap242_managed_model_based_3d_engineering',2011,#4);
#4=APPLICATION_CONTEXT('managed model based 3d engineering');
#10=DIMENSIONAL_EXPONENTS(1.0,0.0,0.0,0.0,0.0,0.0,0.0);
#11=DIMENSIONAL_EXPONENTS(0.0,0.0,0.0,0.0,0.0,0.0,0.0);
#12=(LENGTH_UNIT()NAMED_UNIT(#10)SI_UNIT(.MILLI.,.METRE.));
#13=(NAMED_UNIT(#11)PLANE_ANGLE_UNIT()SI_UNIT($,.RADIAN.));
#14=(NAMED_UNIT(#11)SI_UNIT($,.STERADIAN.)SOLID_ANGLE_UNIT());
#15=LENGTH_MEASURE_WITH_UNIT(LENGTH_MEASURE(25.4),#12);
#16= (CONVERSION_BASED_UNIT('INCH',#15)LENGTH_UNIT()NAMED_UNIT(#10));
#17=UNCERTAINTY_MEASURE_WITH_UNIT(LENGTH_MEASURE(1.0E-006),#16,'','');
#18=(GEOMETRIC_REPRESENTATION_CONTEXT(3)GLOBAL_UNCERTAINTY_ASSIGNED_CONTEXT((#17))GLOBAL_UNIT_ASSIGNED_CONTEXT((#16,#13,#14))REPRESENTATION_CONTEXT('NONE','WORKSPACE'));
#20=CARTESIAN_POINT('',(0.00000000000000,0.00000000000000,0.00000000000000));
#21=DIRECTION('',(0.00000000000000,0.00000000000000,1.00000000000000));
#22=DIRECTION('',(1.00000000000000,0.00000000000000,0.00000000000000));
#23=AXIS2_PLACEMENT_3D('',#20,#21,#22);
#24=CARTESIAN_POINT('',(0.125000000000000,-3.00000000000000,1.68388934882761E-16));
#25=VERTEX_POINT('',#24);
#26=CARTESIAN_POINT('',(0.00000000000000,-3.00000000000000,1.68388934882761E-16));
#27=DIRECTION('',(0.00000000000000,1.00000000000000,-6.12323399573677E-17));
#28=DIRECTION('',(1.00000000000000,0.00000000000000,0.00000000000000));
#29=AXIS2_PLACEMENT_3D('',#26,#27,#28);
#30=CIRCLE('',#29,0.125000000000000);
#31=EDGE_CURVE('',#25,#25,#30,.T.);
#32=ORIENTED_EDGE('',*,*,#31,.T.);
#33=CARTESIAN_POINT('',(0.125000000000000,3.00000000000000,-1.99005104861445E-16));
#34=VERTEX_POINT('',#33);
#35=CARTESIAN_POINT('',(0.125000000000000,1.53080849893419E-17,-1.53080849893419E-17));
#36=DIRECTION('',(0.00000000000000,-1.00000000000000,6.12323399573677E-17));
#37=VECTOR('',#36,0.125000000000000);
#38=LINE('',#35,#37);
#39=EDGE_CURVE('',#34,#25,#38,.T.);
#40=ORIENTED_EDGE('',*,*,#39,.F.);
#41=CARTESIAN_POINT('',(0.00000000000000,3.00000000000000,-1.99005104861445E-16));
#42=DIRECTION('',(0.00000000000000,-1.00000000000000,6.12323399573677E-17));
#43=DIRECTION('',(1.00000000000000,0.00000000000000,0.00000000000000));
#44=AXIS2_PLACEMENT_3D('',#41,#42,#43);
#45=CIRCLE('',#44,0.125000000000000);
#46=EDGE_CURVE('',#34,#34,#45,.T.);
#47=ORIENTED_EDGE('',*,*,#46,.T.);
#48=ORIENTED_EDGE('',*,*,#39,.T.);
#49=EDGE_LOOP('',(#32,#40,#47,#48));
#50=FACE_OUTER_BOUND('',#49,.T.);
#51=CARTESIAN_POINT('',(0.00000000000000,1.53080849893419E-17,-1.53080849893419E-17));
#52=DIRECTION('',(0.00000000000000,-1.00000000000000,6.12323399573677E-17));
#53=DIRECTION('',(1.00000000000000,0.00000000000000,0.00000000000000));
#54=AXIS2_PLACEMENT_3D('',#51,#52,#53);
#55=CYLINDRICAL_SURFACE('',#54,0.125000000000000);
#56=ADVANCED_FACE('',(#50),#55,.T.);
#57=ORIENTED_EDGE('',*,*,#31,.F.);
#58=EDGE_LOOP('',(#57));
#59=FACE_OUTER_BOUND('',#58,.T.);
#60=CARTESIAN_POINT('',(-0.0477084178286689,-3.00000000000000,0.115537469542505));
#61=DIRECTION('',(5.77998796442798E-33,-1.00000000000000,6.12323399573677E-17));
#62=DIRECTION('',(1.00000000000000,5.77998796442798E-33,0.00000000000000));
#63=AXIS2_PLACEMENT_3D('',#60,#61,#62);
#64=PLANE('',#63);
#65=ADVANCED_FACE('',(#59),#64,.T.);
#66=ORIENTED_EDGE('',*,*,#46,.F.);
#67=EDGE_LOOP('',(#66));
#68=FACE_OUTER_BOUND('',#67,.T.);
#69=CARTESIAN_POINT('',(-0.0477084178286689,3.00000000000000,0.115537469542504));
#70=DIRECTION('',(5.77998796442798E-33,-1.00000000000000,6.12323399573677E-17));
#71=DIRECTION('',(1.00000000000000,5.77998796442798E-33,0.00000000000000));
#72=AXIS2_PLACEMENT_3D('',#69,#70,#71);
#73=PLANE('',#72);
#74=ADVANCED_FACE('',(#68),#73,.F.);
#75=CLOSED_SHELL('',(#56,#65,#74));
#76=MANIFOLD_SOLID_BREP('',#75);
#77=COLOUR_RGB('',1.00000000000000,0.00000000000000,0.00000000000000);
#78=FILL_AREA_STYLE_COLOUR('',#77);
#79=FILL_AREA_STYLE('',(#78));
#80=SURFACE_STYLE_FILL_AREA(#79);
#81=SURFACE_SIDE_STYLE('',(#80));
#82=SURFACE_STYLE_USAGE(.BOTH.,#81);
#83=PRESENTATION_STYLE_ASSIGNMENT((#82));
#84=STYLED_ITEM('',(#83),#76);
#85=ADVANCED_BREP_SHAPE_REPRESENTATION('',(#76,#23),#18);
#86=PRODUCT('','','',(#2));
#87=PRODUCT_DEFINITION_FORMATION_WITH_SPECIFIED_SOURCE('','',#86,.NOT_KNOWN.);
#88=PRODUCT_CATEGORY('part','');
#89=PRODUCT_RELATED_PRODUCT_CATEGORY('detail','',(#86));
#90=PRODUCT_CATEGORY_RELATIONSHIP('','',#88,#89);
#91=PRODUCT_DEFINITION('','',#87,#1);
#92=PRODUCT_DEFINITION_SHAPE('NONE','NONE',#91);
#93=SHAPE_DEFINITION_REPRESENTATION(#92,#85);
#94=PRESENTATION_LAYER_ASSIGNMENT('1','Unnamed [1]',(#76));
ENDSEC;
END-ISO-10303-21;
