ISO-10303-21;
HEADER;
FILE_DESCRIPTION(('', 'CAx-IF Rec.Pracs.---Representation and Presentation of Product Manufacturing Information (PMI)---4.0---2014-10-13'),'2;1');
FILE_NAME('C:/Program Files/Kubotek/KeyCreatorPro.2021.SP1/STEP/SG2401.STP', '2021-04-08T17:40:05',(''), (''), 'Kubotek Kosmos Version 3.0.7268.7268', 'KeyCreator Pro', '');
FILE_SCHEMA(('AP242_MANAGED_MODEL_BASED_3D_ENGINEERING_MIM_LF  { 1 0 10303 442 1 1 4 }'));
ENDSEC;
DATA;
#1=PRODUCT_DEFINITION_CONTEXT('',#4,'design');
#2=PRODUCT_CONTEXT('',#4,'mechanical');
#3=APPLICATION_PROTOCOL_DEFINITION('international standard','ap242_managed_model_based_3d_engineering',2011,#4);
#4=APPLICATION_CONTEXT('managed model based 3d engineering');
#10=DIMENSIONAL_EXPONENTS(1.0,0.0,0.0,0.0,0.0,0.0,0.0);
#11=DIMENSIONAL_EXPONENTS(0.0,0.0,0.0,0.0,0.0,0.0,0.0);
#12=(LENGTH_UNIT()NAMED_UNIT(#10)SI_UNIT(.MILLI.,.METRE.));
#13=(NAMED_UNIT(#11)PLANE_ANGLE_UNIT()SI_UNIT($,.RADIAN.));
#14=(NAMED_UNIT(#11)SI_UNIT($,.STERADIAN.)SOLID_ANGLE_UNIT());
#15=LENGTH_MEASURE_WITH_UNIT(LENGTH_MEASURE(25.4),#12);
#16= (CONVERSION_BASED_UNIT('INCH',#15)LENGTH_UNIT()NAMED_UNIT(#10));
#17=UNCERTAINTY_MEASURE_WITH_UNIT(LENGTH_MEASURE(1.0E-006),#16,'','');
#18=(GEOMETRIC_REPRESENTATION_CONTEXT(3)GLOBAL_UNCERTAINTY_ASSIGNED_CONTEXT((#17))GLOBAL_UNIT_ASSIGNED_CONTEXT((#16,#13,#14))REPRESENTATION_CONTEXT('NONE','WORKSPACE'));
#20=CARTESIAN_POINT('',(0.00000000000000,0.00000000000000,0.00000000000000));
#21=DIRECTION('',(0.00000000000000,0.00000000000000,1.00000000000000));
#22=DIRECTION('',(1.00000000000000,0.00000000000000,0.00000000000000));
#23=AXIS2_PLACEMENT_3D('',#20,#21,#22);
#24=CARTESIAN_POINT('',(0.0880000000000001,-3.59500000000000,0.625000000000000));
#25=VERTEX_POINT('',#24);
#26=CARTESIAN_POINT('',(0.118000000000000,-3.59500000000000,0.595000000000000));
#27=VERTEX_POINT('',#26);
#28=CARTESIAN_POINT('',(0.0880000000000001,-3.59500000000000,0.595000000000000));
#29=DIRECTION('',(0.00000000000000,1.00000000000000,-6.12323399573677E-17));
#30=DIRECTION('',(1.00000000000000,0.00000000000000,0.00000000000000));
#31=AXIS2_PLACEMENT_3D('',#28,#29,#30);
#32=CIRCLE('',#31,0.0300000000000000);
#33=EDGE_CURVE('',#25,#27,#32,.T.);
#34=ORIENTED_EDGE('',*,*,#33,.T.);
#35=CARTESIAN_POINT('',(0.118000000000000,2.40500000000000,0.595000000000000));
#36=VERTEX_POINT('',#35);
#37=CARTESIAN_POINT('',(0.118000000000000,-0.595000000000000,0.595000000000000));
#38=DIRECTION('',(0.00000000000000,1.00000000000000,0.00000000000000));
#39=VECTOR('',#38,1.00000000000000);
#40=LINE('',#37,#39);
#41=EDGE_CURVE('',#27,#36,#40,.T.);
#42=ORIENTED_EDGE('',*,*,#41,.T.);
#43=CARTESIAN_POINT('',(0.0880000000000001,2.40500000000000,0.625000000000000));
#44=VERTEX_POINT('',#43);
#45=CARTESIAN_POINT('',(0.0880000000000001,2.40500000000000,0.595000000000000));
#46=DIRECTION('',(0.00000000000000,-1.00000000000000,6.12323399573677E-17));
#47=DIRECTION('',(1.00000000000000,0.00000000000000,0.00000000000000));
#48=AXIS2_PLACEMENT_3D('',#45,#46,#47);
#49=CIRCLE('',#48,0.0300000000000000);
#50=EDGE_CURVE('',#36,#44,#49,.T.);
#51=ORIENTED_EDGE('',*,*,#50,.T.);
#52=CARTESIAN_POINT('',(0.0880000000000001,-0.595000000000000,0.625000000000000));
#53=DIRECTION('',(0.00000000000000,-1.00000000000000,0.00000000000000));
#54=VECTOR('',#53,1.00000000000000);
#55=LINE('',#52,#54);
#56=EDGE_CURVE('',#44,#25,#55,.T.);
#57=ORIENTED_EDGE('',*,*,#56,.T.);
#58=EDGE_LOOP('',(#34,#42,#51,#57));
#59=FACE_OUTER_BOUND('',#58,.T.);
#60=CARTESIAN_POINT('',(0.0880000000000001,-0.595000000000000,0.595000000000000));
#61=DIRECTION('',(0.00000000000000,-1.00000000000000,0.00000000000000));
#62=DIRECTION('',(-0.707106781186548,0.00000000000000,-0.707106781186547));
#63=AXIS2_PLACEMENT_3D('',#60,#61,#62);
#64=CYLINDRICAL_SURFACE('',#63,0.0300000000000000);
#65=ADVANCED_FACE('',(#59),#64,.T.);
#66=CARTESIAN_POINT('',(0.118000000000000,-3.59500000000000,-0.507000000000000));
#67=VERTEX_POINT('',#66);
#68=CARTESIAN_POINT('',(0.118000000000000,-3.59500000000000,0.595000000000000));
#69=DIRECTION('',(0.00000000000000,-1.00746190982319E-16,-1.00000000000000));
#70=VECTOR('',#69,1.00000000000000);
#71=LINE('',#68,#70);
#72=EDGE_CURVE('',#27,#67,#71,.T.);
#73=ORIENTED_EDGE('',*,*,#72,.T.);
#74=CARTESIAN_POINT('',(0.118000000000000,2.40500000000000,-0.507000000000000));
#75=VERTEX_POINT('',#74);
#76=CARTESIAN_POINT('',(0.118000000000000,-0.595000000000000,-0.507000000000000));
#77=DIRECTION('',(0.00000000000000,1.00000000000000,0.00000000000000));
#78=VECTOR('',#77,1.00000000000000);
#79=LINE('',#76,#78);
#80=EDGE_CURVE('',#67,#75,#79,.T.);
#81=ORIENTED_EDGE('',*,*,#80,.T.);
#82=CARTESIAN_POINT('',(0.118000000000000,2.40500000000000,0.595000000000000));
#83=DIRECTION('',(0.00000000000000,1.00746190982319E-16,1.00000000000000));
#84=VECTOR('',#83,1.00000000000000);
#85=LINE('',#82,#84);
#86=EDGE_CURVE('',#75,#36,#85,.T.);
#87=ORIENTED_EDGE('',*,*,#86,.T.);
#88=ORIENTED_EDGE('',*,*,#41,.F.);
#89=EDGE_LOOP('',(#73,#81,#87,#88));
#90=FACE_OUTER_BOUND('',#89,.T.);
#91=CARTESIAN_POINT('',(0.118000000000000,-0.595000000000000,0.0440000000000000));
#92=DIRECTION('',(1.00000000000000,0.00000000000000,0.00000000000000));
#93=DIRECTION('',(-0.00000000000000,1.00746190982319E-16,1.00000000000000));
#94=AXIS2_PLACEMENT_3D('',#91,#92,#93);
#95=PLANE('',#94);
#96=ADVANCED_FACE('',(#90),#95,.T.);
#97=CARTESIAN_POINT('',(2.47000000000000,-3.59500000000000,-0.507000000000000));
#98=VERTEX_POINT('',#97);
#99=CARTESIAN_POINT('',(0.118000000000000,-3.59500000000000,-0.507000000000000));
#100=DIRECTION('',(1.00000000000000,0.00000000000000,0.00000000000000));
#101=VECTOR('',#100,1.00000000000000);
#102=LINE('',#99,#101);
#103=EDGE_CURVE('',#67,#98,#102,.T.);
#104=ORIENTED_EDGE('',*,*,#103,.T.);
#105=CARTESIAN_POINT('',(2.47000000000000,2.40500000000000,-0.507000000000000));
#106=VERTEX_POINT('',#105);
#107=CARTESIAN_POINT('',(2.47000000000000,-0.595000000000000,-0.507000000000000));
#108=DIRECTION('',(0.00000000000000,-1.00000000000000,0.00000000000000));
#109=VECTOR('',#108,1.00000000000000);
#110=LINE('',#107,#109);
#111=EDGE_CURVE('',#106,#98,#110,.T.);
#112=ORIENTED_EDGE('',*,*,#111,.F.);
#113=CARTESIAN_POINT('',(0.118000000000000,2.40500000000000,-0.507000000000000));
#114=DIRECTION('',(-1.00000000000000,-0.00000000000000,-0.00000000000000));
#115=VECTOR('',#114,1.00000000000000);
#116=LINE('',#113,#115);
#117=EDGE_CURVE('',#106,#75,#116,.T.);
#118=ORIENTED_EDGE('',*,*,#117,.T.);
#119=ORIENTED_EDGE('',*,*,#80,.F.);
#120=EDGE_LOOP('',(#104,#112,#118,#119));
#121=FACE_OUTER_BOUND('',#120,.T.);
#122=CARTESIAN_POINT('',(1.29400000000000,-0.595000000000000,-0.507000000000000));
#123=DIRECTION('',(-0.00000000000000,0.00000000000000,1.00000000000000));
#124=DIRECTION('',(-1.00000000000000,-0.00000000000000,-0.00000000000000));
#125=AXIS2_PLACEMENT_3D('',#122,#123,#124);
#126=PLANE('',#125);
#127=ADVANCED_FACE('',(#121),#126,.T.);
#128=CARTESIAN_POINT('',(2.50000000000000,-3.59500000000000,-0.537000000000000));
#129=VERTEX_POINT('',#128);
#130=CARTESIAN_POINT('',(2.47000000000000,-3.59500000000000,-0.537000000000000));
#131=DIRECTION('',(0.00000000000000,1.00000000000000,-6.12323399573677E-17));
#132=DIRECTION('',(1.00000000000000,0.00000000000000,0.00000000000000));
#133=AXIS2_PLACEMENT_3D('',#130,#131,#132);
#134=CIRCLE('',#133,0.0300000000000000);
#135=EDGE_CURVE('',#98,#129,#134,.T.);
#136=ORIENTED_EDGE('',*,*,#135,.T.);
#137=CARTESIAN_POINT('',(2.50000000000000,2.40500000000000,-0.537000000000000));
#138=VERTEX_POINT('',#137);
#139=CARTESIAN_POINT('',(2.50000000000000,-0.595000000000000,-0.537000000000000));
#140=DIRECTION('',(0.00000000000000,1.00000000000000,0.00000000000000));
#141=VECTOR('',#140,1.00000000000000);
#142=LINE('',#139,#141);
#143=EDGE_CURVE('',#129,#138,#142,.T.);
#144=ORIENTED_EDGE('',*,*,#143,.T.);
#145=CARTESIAN_POINT('',(2.47000000000000,2.40500000000000,-0.537000000000000));
#146=DIRECTION('',(0.00000000000000,-1.00000000000000,6.12323399573677E-17));
#147=DIRECTION('',(1.00000000000000,0.00000000000000,0.00000000000000));
#148=AXIS2_PLACEMENT_3D('',#145,#146,#147);
#149=CIRCLE('',#148,0.0300000000000000);
#150=EDGE_CURVE('',#138,#106,#149,.T.);
#151=ORIENTED_EDGE('',*,*,#150,.T.);
#152=ORIENTED_EDGE('',*,*,#111,.T.);
#153=EDGE_LOOP('',(#136,#144,#151,#152));
#154=FACE_OUTER_BOUND('',#153,.T.);
#155=CARTESIAN_POINT('',(2.47000000000000,-0.595000000000000,-0.537000000000000));
#156=DIRECTION('',(0.00000000000000,-1.00000000000000,0.00000000000000));
#157=DIRECTION('',(-0.707106781186546,0.00000000000000,-0.707106781186549));
#158=AXIS2_PLACEMENT_3D('',#155,#156,#157);
#159=CYLINDRICAL_SURFACE('',#158,0.0300000000000000);
#160=ADVANCED_FACE('',(#154),#159,.T.);
#161=CARTESIAN_POINT('',(2.50000000000000,-3.59500000000000,-0.595000000000000));
#162=VERTEX_POINT('',#161);
#163=CARTESIAN_POINT('',(2.50000000000000,-3.59500000000000,-0.595000000000000));
#164=DIRECTION('',(-0.00000000000000,-0.00000000000000,-1.00000000000000));
#165=VECTOR('',#164,1.00000000000000);
#166=LINE('',#163,#165);
#167=EDGE_CURVE('',#129,#162,#166,.T.);
#168=ORIENTED_EDGE('',*,*,#167,.T.);
#169=CARTESIAN_POINT('',(2.50000000000000,2.40500000000000,-0.595000000000000));
#170=VERTEX_POINT('',#169);
#171=CARTESIAN_POINT('',(2.50000000000000,-0.595000000000000,-0.595000000000000));
#172=DIRECTION('',(0.00000000000000,-1.00000000000000,0.00000000000000));
#173=VECTOR('',#172,1.00000000000000);
#174=LINE('',#171,#173);
#175=EDGE_CURVE('',#170,#162,#174,.T.);
#176=ORIENTED_EDGE('',*,*,#175,.F.);
#177=CARTESIAN_POINT('',(2.50000000000000,2.40500000000000,-0.595000000000000));
#178=DIRECTION('',(0.00000000000000,0.00000000000000,1.00000000000000));
#179=VECTOR('',#178,1.00000000000000);
#180=LINE('',#177,#179);
#181=EDGE_CURVE('',#170,#138,#180,.T.);
#182=ORIENTED_EDGE('',*,*,#181,.T.);
#183=ORIENTED_EDGE('',*,*,#143,.F.);
#184=EDGE_LOOP('',(#168,#176,#182,#183));
#185=FACE_OUTER_BOUND('',#184,.T.);
#186=CARTESIAN_POINT('',(2.50000000000000,-0.595000000000000,-0.566000000000000));
#187=DIRECTION('',(1.00000000000000,0.00000000000000,-0.00000000000000));
#188=DIRECTION('',(0.00000000000000,0.00000000000000,1.00000000000000));
#189=AXIS2_PLACEMENT_3D('',#186,#187,#188);
#190=PLANE('',#189);
#191=ADVANCED_FACE('',(#185),#190,.T.);
#192=CARTESIAN_POINT('',(2.47000000000000,-3.59500000000000,-0.625000000000000));
#193=VERTEX_POINT('',#192);
#194=CARTESIAN_POINT('',(2.47000000000000,-3.59500000000000,-0.595000000000000));
#195=DIRECTION('',(0.00000000000000,1.00000000000000,-6.12323399573677E-17));
#196=DIRECTION('',(0.00000000000000,6.12323399573677E-17,1.00000000000000));
#197=AXIS2_PLACEMENT_3D('',#194,#195,#196);
#198=CIRCLE('',#197,0.0300000000000000);
#199=EDGE_CURVE('',#162,#193,#198,.T.);
#200=ORIENTED_EDGE('',*,*,#199,.T.);
#201=CARTESIAN_POINT('',(2.47000000000000,2.40500000000000,-0.625000000000000));
#202=VERTEX_POINT('',#201);
#203=CARTESIAN_POINT('',(2.47000000000000,-0.595000000000000,-0.625000000000000));
#204=DIRECTION('',(0.00000000000000,1.00000000000000,0.00000000000000));
#205=VECTOR('',#204,1.00000000000000);
#206=LINE('',#203,#205);
#207=EDGE_CURVE('',#193,#202,#206,.T.);
#208=ORIENTED_EDGE('',*,*,#207,.T.);
#209=CARTESIAN_POINT('',(2.47000000000000,2.40500000000000,-0.595000000000000));
#210=DIRECTION('',(0.00000000000000,-1.00000000000000,6.12323399573677E-17));
#211=DIRECTION('',(0.00000000000000,6.12323399573677E-17,1.00000000000000));
#212=AXIS2_PLACEMENT_3D('',#209,#210,#211);
#213=CIRCLE('',#212,0.0300000000000000);
#214=EDGE_CURVE('',#202,#170,#213,.T.);
#215=ORIENTED_EDGE('',*,*,#214,.T.);
#216=ORIENTED_EDGE('',*,*,#175,.T.);
#217=EDGE_LOOP('',(#200,#208,#215,#216));
#218=FACE_OUTER_BOUND('',#217,.T.);
#219=CARTESIAN_POINT('',(2.47000000000000,-0.595000000000000,-0.595000000000000));
#220=DIRECTION('',(0.00000000000000,-1.00000000000000,0.00000000000000));
#221=DIRECTION('',(0.00000000000000,0.00000000000000,1.00000000000000));
#222=AXIS2_PLACEMENT_3D('',#219,#220,#221);
#223=CYLINDRICAL_SURFACE('',#222,0.0300000000000000);
#224=ADVANCED_FACE('',(#218),#223,.T.);
#225=CARTESIAN_POINT('',(0.0299999999999998,-3.59500000000000,-0.625000000000000));
#226=VERTEX_POINT('',#225);
#227=CARTESIAN_POINT('',(0.0299999999999998,-3.59500000000000,-0.625000000000000));
#228=DIRECTION('',(-1.00000000000000,-0.00000000000000,-0.00000000000000));
#229=VECTOR('',#228,1.00000000000000);
#230=LINE('',#227,#229);
#231=EDGE_CURVE('',#193,#226,#230,.T.);
#232=ORIENTED_EDGE('',*,*,#231,.T.);
#233=CARTESIAN_POINT('',(0.0299999999999998,2.40500000000000,-0.625000000000000));
#234=VERTEX_POINT('',#233);
#235=CARTESIAN_POINT('',(0.0299999999999998,-0.595000000000000,-0.625000000000000));
#236=DIRECTION('',(0.00000000000000,-1.00000000000000,0.00000000000000));
#237=VECTOR('',#236,1.00000000000000);
#238=LINE('',#235,#237);
#239=EDGE_CURVE('',#234,#226,#238,.T.);
#240=ORIENTED_EDGE('',*,*,#239,.F.);
#241=CARTESIAN_POINT('',(0.0299999999999998,2.40500000000000,-0.625000000000000));
#242=DIRECTION('',(1.00000000000000,0.00000000000000,0.00000000000000));
#243=VECTOR('',#242,1.00000000000000);
#244=LINE('',#241,#243);
#245=EDGE_CURVE('',#234,#202,#244,.T.);
#246=ORIENTED_EDGE('',*,*,#245,.T.);
#247=ORIENTED_EDGE('',*,*,#207,.F.);
#248=EDGE_LOOP('',(#232,#240,#246,#247));
#249=FACE_OUTER_BOUND('',#248,.T.);
#250=CARTESIAN_POINT('',(1.25000000000000,-0.595000000000000,-0.625000000000000));
#251=DIRECTION('',(0.00000000000000,0.00000000000000,-1.00000000000000));
#252=DIRECTION('',(1.00000000000000,0.00000000000000,0.00000000000000));
#253=AXIS2_PLACEMENT_3D('',#250,#251,#252);
#254=PLANE('',#253);
#255=ADVANCED_FACE('',(#249),#254,.T.);
#256=CARTESIAN_POINT('',(0.00000000000000,-3.59500000000000,-0.595000000000000));
#257=VERTEX_POINT('',#256);
#258=CARTESIAN_POINT('',(0.0299999999999998,-3.59500000000000,-0.595000000000000));
#259=DIRECTION('',(0.00000000000000,1.00000000000000,-6.12323399573677E-17));
#260=DIRECTION('',(0.00000000000000,-6.12323399573677E-17,-1.00000000000000));
#261=AXIS2_PLACEMENT_3D('',#258,#259,#260);
#262=CIRCLE('',#261,0.0300000000000000);
#263=EDGE_CURVE('',#226,#257,#262,.T.);
#264=ORIENTED_EDGE('',*,*,#263,.T.);
#265=CARTESIAN_POINT('',(0.00000000000000,2.40500000000000,-0.595000000000000));
#266=VERTEX_POINT('',#265);
#267=CARTESIAN_POINT('',(0.00000000000000,-0.595000000000000,-0.595000000000000));
#268=DIRECTION('',(0.00000000000000,1.00000000000000,0.00000000000000));
#269=VECTOR('',#268,1.00000000000000);
#270=LINE('',#267,#269);
#271=EDGE_CURVE('',#257,#266,#270,.T.);
#272=ORIENTED_EDGE('',*,*,#271,.T.);
#273=CARTESIAN_POINT('',(0.0299999999999998,2.40500000000000,-0.595000000000000));
#274=DIRECTION('',(0.00000000000000,-1.00000000000000,6.12323399573677E-17));
#275=DIRECTION('',(0.00000000000000,-6.12323399573677E-17,-1.00000000000000));
#276=AXIS2_PLACEMENT_3D('',#273,#274,#275);
#277=CIRCLE('',#276,0.0300000000000000);
#278=EDGE_CURVE('',#266,#234,#277,.T.);
#279=ORIENTED_EDGE('',*,*,#278,.T.);
#280=ORIENTED_EDGE('',*,*,#239,.T.);
#281=EDGE_LOOP('',(#264,#272,#279,#280));
#282=FACE_OUTER_BOUND('',#281,.T.);
#283=CARTESIAN_POINT('',(0.0299999999999998,-0.595000000000000,-0.595000000000000));
#284=DIRECTION('',(0.00000000000000,-1.00000000000000,0.00000000000000));
#285=DIRECTION('',(0.707106781186548,0.00000000000000,0.707106781186547));
#286=AXIS2_PLACEMENT_3D('',#283,#284,#285);
#287=CYLINDRICAL_SURFACE('',#286,0.0300000000000000);
#288=ADVANCED_FACE('',(#282),#287,.T.);
#289=CARTESIAN_POINT('',(0.00000000000000,-3.59500000000000,0.595000000000000));
#290=VERTEX_POINT('',#289);
#291=CARTESIAN_POINT('',(0.00000000000000,-3.59500000000000,0.595000000000000));
#292=DIRECTION('',(0.00000000000000,9.32960524895090E-17,1.00000000000000));
#293=VECTOR('',#292,1.00000000000000);
#294=LINE('',#291,#293);
#295=EDGE_CURVE('',#257,#290,#294,.T.);
#296=ORIENTED_EDGE('',*,*,#295,.T.);
#297=CARTESIAN_POINT('',(0.00000000000000,2.40500000000000,0.595000000000000));
#298=VERTEX_POINT('',#297);
#299=CARTESIAN_POINT('',(0.00000000000000,-0.595000000000000,0.595000000000000));
#300=DIRECTION('',(0.00000000000000,-1.00000000000000,0.00000000000000));
#301=VECTOR('',#300,1.00000000000000);
#302=LINE('',#299,#301);
#303=EDGE_CURVE('',#298,#290,#302,.T.);
#304=ORIENTED_EDGE('',*,*,#303,.F.);
#305=CARTESIAN_POINT('',(0.00000000000000,2.40500000000000,0.595000000000000));
#306=DIRECTION('',(0.00000000000000,-9.32960524895090E-17,-1.00000000000000));
#307=VECTOR('',#306,1.00000000000000);
#308=LINE('',#305,#307);
#309=EDGE_CURVE('',#298,#266,#308,.T.);
#310=ORIENTED_EDGE('',*,*,#309,.T.);
#311=ORIENTED_EDGE('',*,*,#271,.F.);
#312=EDGE_LOOP('',(#296,#304,#310,#311));
#313=FACE_OUTER_BOUND('',#312,.T.);
#314=CARTESIAN_POINT('',(0.00000000000000,-0.595000000000000,0.00000000000000));
#315=DIRECTION('',(-1.00000000000000,-0.00000000000000,0.00000000000000));
#316=DIRECTION('',(0.00000000000000,-9.32960524895090E-17,-1.00000000000000));
#317=AXIS2_PLACEMENT_3D('',#314,#315,#316);
#318=PLANE('',#317);
#319=ADVANCED_FACE('',(#313),#318,.T.);
#320=CARTESIAN_POINT('',(0.0299999999999998,-3.59500000000000,0.625000000000000));
#321=VERTEX_POINT('',#320);
#322=CARTESIAN_POINT('',(0.0299999999999998,-3.59500000000000,0.595000000000000));
#323=DIRECTION('',(0.00000000000000,1.00000000000000,-6.12323399573677E-17));
#324=DIRECTION('',(1.00000000000000,0.00000000000000,0.00000000000000));
#325=AXIS2_PLACEMENT_3D('',#322,#323,#324);
#326=CIRCLE('',#325,0.0300000000000000);
#327=EDGE_CURVE('',#290,#321,#326,.T.);
#328=ORIENTED_EDGE('',*,*,#327,.T.);
#329=CARTESIAN_POINT('',(0.0299999999999998,2.40500000000000,0.625000000000000));
#330=VERTEX_POINT('',#329);
#331=CARTESIAN_POINT('',(0.0299999999999998,-0.595000000000000,0.625000000000000));
#332=DIRECTION('',(0.00000000000000,1.00000000000000,0.00000000000000));
#333=VECTOR('',#332,1.00000000000000);
#334=LINE('',#331,#333);
#335=EDGE_CURVE('',#321,#330,#334,.T.);
#336=ORIENTED_EDGE('',*,*,#335,.T.);
#337=CARTESIAN_POINT('',(0.0299999999999998,2.40500000000000,0.595000000000000));
#338=DIRECTION('',(0.00000000000000,-1.00000000000000,6.12323399573677E-17));
#339=DIRECTION('',(1.00000000000000,0.00000000000000,0.00000000000000));
#340=AXIS2_PLACEMENT_3D('',#337,#338,#339);
#341=CIRCLE('',#340,0.0300000000000000);
#342=EDGE_CURVE('',#330,#298,#341,.T.);
#343=ORIENTED_EDGE('',*,*,#342,.T.);
#344=ORIENTED_EDGE('',*,*,#303,.T.);
#345=EDGE_LOOP('',(#328,#336,#343,#344));
#346=FACE_OUTER_BOUND('',#345,.T.);
#347=CARTESIAN_POINT('',(0.0299999999999998,-0.595000000000000,0.595000000000000));
#348=DIRECTION('',(0.00000000000000,-1.00000000000000,0.00000000000000));
#349=DIRECTION('',(1.00000000000000,0.00000000000000,0.00000000000000));
#350=AXIS2_PLACEMENT_3D('',#347,#348,#349);
#351=CYLINDRICAL_SURFACE('',#350,0.0300000000000000);
#352=ADVANCED_FACE('',(#346),#351,.T.);
#353=CARTESIAN_POINT('',(0.0299999999999998,-3.59500000000000,0.625000000000000));
#354=DIRECTION('',(1.00000000000000,0.00000000000000,0.00000000000000));
#355=VECTOR('',#354,1.00000000000000);
#356=LINE('',#353,#355);
#357=EDGE_CURVE('',#321,#25,#356,.T.);
#358=ORIENTED_EDGE('',*,*,#357,.T.);
#359=ORIENTED_EDGE('',*,*,#56,.F.);
#360=CARTESIAN_POINT('',(0.0299999999999998,2.40500000000000,0.625000000000000));
#361=DIRECTION('',(-1.00000000000000,-0.00000000000000,-0.00000000000000));
#362=VECTOR('',#361,1.00000000000000);
#363=LINE('',#360,#362);
#364=EDGE_CURVE('',#44,#330,#363,.T.);
#365=ORIENTED_EDGE('',*,*,#364,.T.);
#366=ORIENTED_EDGE('',*,*,#335,.F.);
#367=EDGE_LOOP('',(#358,#359,#365,#366));
#368=FACE_OUTER_BOUND('',#367,.T.);
#369=CARTESIAN_POINT('',(0.0589999999999999,-0.595000000000000,0.625000000000000));
#370=DIRECTION('',(-0.00000000000000,0.00000000000000,1.00000000000000));
#371=DIRECTION('',(-1.00000000000000,-0.00000000000000,-0.00000000000000));
#372=AXIS2_PLACEMENT_3D('',#369,#370,#371);
#373=PLANE('',#372);
#374=ADVANCED_FACE('',(#368),#373,.T.);
#375=ORIENTED_EDGE('',*,*,#33,.F.);
#376=ORIENTED_EDGE('',*,*,#357,.F.);
#377=ORIENTED_EDGE('',*,*,#327,.F.);
#378=ORIENTED_EDGE('',*,*,#295,.F.);
#379=ORIENTED_EDGE('',*,*,#263,.F.);
#380=ORIENTED_EDGE('',*,*,#231,.F.);
#381=ORIENTED_EDGE('',*,*,#199,.F.);
#382=ORIENTED_EDGE('',*,*,#167,.F.);
#383=ORIENTED_EDGE('',*,*,#135,.F.);
#384=ORIENTED_EDGE('',*,*,#103,.F.);
#385=ORIENTED_EDGE('',*,*,#72,.F.);
#386=EDGE_LOOP('',(#375,#376,#377,#378,#379,#380,#381,#382,#383,#384,#385));
#387=FACE_OUTER_BOUND('',#386,.T.);
#388=CARTESIAN_POINT('',(0.0481148499999999,-3.59500000000000,0.625000000000000));
#389=DIRECTION('',(0.00000000000000,-1.00000000000000,0.00000000000000));
#390=DIRECTION('',(1.00000000000000,0.00000000000000,0.00000000000000));
#391=AXIS2_PLACEMENT_3D('',#388,#389,#390);
#392=PLANE('',#391);
#393=ADVANCED_FACE('',(#387),#392,.T.);
#394=ORIENTED_EDGE('',*,*,#342,.F.);
#395=ORIENTED_EDGE('',*,*,#364,.F.);
#396=ORIENTED_EDGE('',*,*,#50,.F.);
#397=ORIENTED_EDGE('',*,*,#86,.F.);
#398=ORIENTED_EDGE('',*,*,#117,.F.);
#399=ORIENTED_EDGE('',*,*,#150,.F.);
#400=ORIENTED_EDGE('',*,*,#181,.F.);
#401=ORIENTED_EDGE('',*,*,#214,.F.);
#402=ORIENTED_EDGE('',*,*,#245,.F.);
#403=ORIENTED_EDGE('',*,*,#278,.F.);
#404=ORIENTED_EDGE('',*,*,#309,.F.);
#405=EDGE_LOOP('',(#394,#395,#396,#397,#398,#399,#400,#401,#402,#403,#404));
#406=FACE_OUTER_BOUND('',#405,.T.);
#407=CARTESIAN_POINT('',(0.0481148499999999,2.40500000000000,0.625000000000000));
#408=DIRECTION('',(0.00000000000000,-1.00000000000000,0.00000000000000));
#409=DIRECTION('',(1.00000000000000,0.00000000000000,0.00000000000000));
#410=AXIS2_PLACEMENT_3D('',#407,#408,#409);
#411=PLANE('',#410);
#412=ADVANCED_FACE('',(#406),#411,.F.);
#413=CLOSED_SHELL('',(#65,#96,#127,#160,#191,#224,#255,#288,#319,#352,#374,#393,#412));
#414=MANIFOLD_SOLID_BREP('',#413);
#415=COLOUR_RGB('',1.00000000000000,0.00000000000000,0.00000000000000);
#416=FILL_AREA_STYLE_COLOUR('',#415);
#417=FILL_AREA_STYLE('',(#416));
#418=SURFACE_STYLE_FILL_AREA(#417);
#419=SURFACE_SIDE_STYLE('',(#418));
#420=SURFACE_STYLE_USAGE(.BOTH.,#419);
#421=PRESENTATION_STYLE_ASSIGNMENT((#420));
#422=STYLED_ITEM('',(#421),#414);
#423=ADVANCED_BREP_SHAPE_REPRESENTATION('',(#414,#23),#18);
#424=PRODUCT('','','',(#2));
#425=PRODUCT_DEFINITION_FORMATION_WITH_SPECIFIED_SOURCE('','',#424,.NOT_KNOWN.);
#426=PRODUCT_CATEGORY('part','');
#427=PRODUCT_RELATED_PRODUCT_CATEGORY('detail','',(#424));
#428=PRODUCT_CATEGORY_RELATIONSHIP('','',#426,#427);
#429=PRODUCT_DEFINITION('','',#425,#1);
#430=PRODUCT_DEFINITION_SHAPE('NONE','NONE',#429);
#431=SHAPE_DEFINITION_REPRESENTATION(#430,#423);
#432=PRESENTATION_LAYER_ASSIGNMENT('1','Unnamed [1]',(#414));
ENDSEC;
END-ISO-10303-21;
