ISO-10303-21;
HEADER;
FILE_DESCRIPTION(('', 'CAx-IF Rec.Pracs.---Representation and Presentation of Product Manufacturing Information (PMI)---4.0---2014-10-13'),'2;1');
FILE_NAME('C:/Program Files/Kubotek/KeyCreatorPro.2021.SP1/STEP/SG2474.STP', '2021-04-08T12:18:40',(''), (''), 'Kubotek Kosmos Version 3.0.7268.7268', 'KeyCreator Pro', '');
FILE_SCHEMA(('AP242_MANAGED_MODEL_BASED_3D_ENGINEERING_MIM_LF  { 1 0 10303 442 1 1 4 }'));
ENDSEC;
DATA;
#1=PRODUCT_DEFINITION_CONTEXT('',#4,'design');
#2=PRODUCT_CONTEXT('',#4,'mechanical');
#3=APPLICATION_PROTOCOL_DEFINITION('international standard','ap242_managed_model_based_3d_engineering',2011,#4);
#4=APPLICATION_CONTEXT('managed model based 3d engineering');
#10=DIMENSIONAL_EXPONENTS(1.0,0.0,0.0,0.0,0.0,0.0,0.0);
#11=DIMENSIONAL_EXPONENTS(0.0,0.0,0.0,0.0,0.0,0.0,0.0);
#12=(LENGTH_UNIT()NAMED_UNIT(#10)SI_UNIT(.MILLI.,.METRE.));
#13=(NAMED_UNIT(#11)PLANE_ANGLE_UNIT()SI_UNIT($,.RADIAN.));
#14=(NAMED_UNIT(#11)SI_UNIT($,.STERADIAN.)SOLID_ANGLE_UNIT());
#15=LENGTH_MEASURE_WITH_UNIT(LENGTH_MEASURE(25.4),#12);
#16= (CONVERSION_BASED_UNIT('INCH',#15)LENGTH_UNIT()NAMED_UNIT(#10));
#17=UNCERTAINTY_MEASURE_WITH_UNIT(LENGTH_MEASURE(1.0E-006),#16,'','');
#18=(GEOMETRIC_REPRESENTATION_CONTEXT(3)GLOBAL_UNCERTAINTY_ASSIGNED_CONTEXT((#17))GLOBAL_UNIT_ASSIGNED_CONTEXT((#16,#13,#14))REPRESENTATION_CONTEXT('NONE','WORKSPACE'));
#20=CARTESIAN_POINT('',(0.00000000000000,0.00000000000000,0.00000000000000));
#21=DIRECTION('',(0.00000000000000,0.00000000000000,1.00000000000000));
#22=DIRECTION('',(1.00000000000000,0.00000000000000,0.00000000000000));
#23=AXIS2_PLACEMENT_3D('',#20,#21,#22);
#24=CARTESIAN_POINT('',(-0.0800000000000001,1.96402113032592,-0.574021130325903));
#25=VERTEX_POINT('',#24);
#26=CARTESIAN_POINT('',(0.0200000000000000,1.96402113032592,-0.674021130325903));
#27=VERTEX_POINT('',#26);
#28=CARTESIAN_POINT('',(0.0200000000000000,1.96402113032592,-0.574021130325903));
#29=DIRECTION('',(0.00000000000000,-1.00000000000000,1.22464679914735E-16));
#30=DIRECTION('',(0.00000000000000,-1.22464679914735E-16,-1.00000000000000));
#31=AXIS2_PLACEMENT_3D('',#28,#29,#30);
#32=CIRCLE('',#31,0.100000000000000);
#33=EDGE_CURVE('',#25,#27,#32,.T.);
#34=ORIENTED_EDGE('',*,*,#33,.T.);
#35=CARTESIAN_POINT('',(0.0200000000000000,-4.03597886967408,-0.674021130325903));
#36=VERTEX_POINT('',#35);
#37=CARTESIAN_POINT('',(0.0200000000000000,-1.03597886967408,-0.674021130325903));
#38=DIRECTION('',(0.00000000000000,-1.00000000000000,0.00000000000000));
#39=VECTOR('',#38,1.00000000000000);
#40=LINE('',#37,#39);
#41=EDGE_CURVE('',#27,#36,#40,.T.);
#42=ORIENTED_EDGE('',*,*,#41,.T.);
#43=CARTESIAN_POINT('',(-0.0800000000000001,-4.03597886967408,-0.574021130325903));
#44=VERTEX_POINT('',#43);
#45=CARTESIAN_POINT('',(0.0200000000000000,-4.03597886967408,-0.574021130325903));
#46=DIRECTION('',(0.00000000000000,1.00000000000000,-1.22464679914735E-16));
#47=DIRECTION('',(0.00000000000000,-1.22464679914735E-16,-1.00000000000000));
#48=AXIS2_PLACEMENT_3D('',#45,#46,#47);
#49=CIRCLE('',#48,0.100000000000000);
#50=EDGE_CURVE('',#36,#44,#49,.T.);
#51=ORIENTED_EDGE('',*,*,#50,.T.);
#52=CARTESIAN_POINT('',(-0.0800000000000001,-1.03597886967408,-0.574021130325903));
#53=DIRECTION('',(0.00000000000000,1.00000000000000,0.00000000000000));
#54=VECTOR('',#53,1.00000000000000);
#55=LINE('',#52,#54);
#56=EDGE_CURVE('',#44,#25,#55,.T.);
#57=ORIENTED_EDGE('',*,*,#56,.T.);
#58=EDGE_LOOP('',(#34,#42,#51,#57));
#59=FACE_OUTER_BOUND('',#58,.T.);
#60=CARTESIAN_POINT('',(0.0200000000000000,-1.03597886967408,-0.574021130325903));
#61=DIRECTION('',(0.00000000000000,1.00000000000000,0.00000000000000));
#62=DIRECTION('',(0.707106781186548,0.00000000000000,0.707106781186547));
#63=AXIS2_PLACEMENT_3D('',#60,#61,#62);
#64=CYLINDRICAL_SURFACE('',#63,0.100000000000000);
#65=ADVANCED_FACE('',(#59),#64,.T.);
#66=CARTESIAN_POINT('',(1.63000000000000,1.96402113032592,-0.674021130325903));
#67=VERTEX_POINT('',#66);
#68=CARTESIAN_POINT('',(0.0200000000000000,1.96402113032592,-0.674021130325903));
#69=DIRECTION('',(1.00000000000000,0.00000000000000,0.00000000000000));
#70=VECTOR('',#69,1.00000000000000);
#71=LINE('',#68,#70);
#72=EDGE_CURVE('',#27,#67,#71,.T.);
#73=ORIENTED_EDGE('',*,*,#72,.T.);
#74=CARTESIAN_POINT('',(1.63000000000000,-4.03597886967408,-0.674021130325903));
#75=VERTEX_POINT('',#74);
#76=CARTESIAN_POINT('',(1.63000000000000,-1.03597886967408,-0.674021130325903));
#77=DIRECTION('',(0.00000000000000,1.00000000000000,0.00000000000000));
#78=VECTOR('',#77,1.00000000000000);
#79=LINE('',#76,#78);
#80=EDGE_CURVE('',#75,#67,#79,.T.);
#81=ORIENTED_EDGE('',*,*,#80,.F.);
#82=CARTESIAN_POINT('',(0.0200000000000000,-4.03597886967408,-0.674021130325903));
#83=DIRECTION('',(-1.00000000000000,-0.00000000000000,-0.00000000000000));
#84=VECTOR('',#83,1.00000000000000);
#85=LINE('',#82,#84);
#86=EDGE_CURVE('',#75,#36,#85,.T.);
#87=ORIENTED_EDGE('',*,*,#86,.T.);
#88=ORIENTED_EDGE('',*,*,#41,.F.);
#89=EDGE_LOOP('',(#73,#81,#87,#88));
#90=FACE_OUTER_BOUND('',#89,.T.);
#91=CARTESIAN_POINT('',(0.825000000000000,-1.03597886967408,-0.674021130325903));
#92=DIRECTION('',(0.00000000000000,0.00000000000000,-1.00000000000000));
#93=DIRECTION('',(-1.00000000000000,-0.00000000000000,-0.00000000000000));
#94=AXIS2_PLACEMENT_3D('',#91,#92,#93);
#95=PLANE('',#94);
#96=ADVANCED_FACE('',(#90),#95,.T.);
#97=CARTESIAN_POINT('',(1.66804226065181,1.96402113032592,-0.646381810100902));
#98=VERTEX_POINT('',#97);
#99=CARTESIAN_POINT('',(1.62999999999999,1.96402113032592,-0.674021130325903));
#100=CARTESIAN_POINT('',(1.64233460319822,1.96402113032592,-0.674021130371076));
#101=CARTESIAN_POINT('',(1.66181997137122,1.96402113032592,-0.663966025248028));
#102=CARTESIAN_POINT('',(1.66803859119413,1.96402113032592,-0.646392179450417));
#103=CARTESIAN_POINT('',(1.66804226065181,1.96402113032592,-0.646381810100901));
#104=B_SPLINE_CURVE_WITH_KNOTS('',3,(#99,#100,#101,#102,#103),.UNSPECIFIED.,.F.,.F.,(4,1,4),(-1.00000000000000,-0.500000000000000,-0.00000000000000),.UNSPECIFIED.);
#105=EDGE_CURVE('',#67,#98,#104,.T.);
#106=ORIENTED_EDGE('',*,*,#105,.T.);
#107=CARTESIAN_POINT('',(1.66804226065181,-4.03597886967408,-0.646381810100902));
#108=VERTEX_POINT('',#107);
#109=CARTESIAN_POINT('',(1.66804226065181,-1.03597886967408,-0.646381810100902));
#110=DIRECTION('',(0.00000000000000,-1.00000000000000,0.00000000000000));
#111=VECTOR('',#110,1.00000000000000);
#112=LINE('',#109,#111);
#113=EDGE_CURVE('',#98,#108,#112,.T.);
#114=ORIENTED_EDGE('',*,*,#113,.T.);
#115=CARTESIAN_POINT('',(1.66804226065181,-4.03597886967408,-0.646381810100901));
#116=CARTESIAN_POINT('',(1.66803859119413,-4.03597886967408,-0.646392179450417));
#117=CARTESIAN_POINT('',(1.66181997137122,-4.03597886967408,-0.663966025248028));
#118=CARTESIAN_POINT('',(1.64233460319822,-4.03597886967408,-0.674021130371076));
#119=CARTESIAN_POINT('',(1.62999999999999,-4.03597886967408,-0.674021130325903));
#120=B_SPLINE_CURVE_WITH_KNOTS('',3,(#115,#116,#117,#118,#119),.UNSPECIFIED.,.F.,.F.,(4,1,4),(0.00000000000000,0.500000000000000,1.00000000000000),.UNSPECIFIED.);
#121=EDGE_CURVE('',#108,#75,#120,.T.);
#122=ORIENTED_EDGE('',*,*,#121,.T.);
#123=ORIENTED_EDGE('',*,*,#80,.T.);
#124=EDGE_LOOP('',(#106,#114,#122,#123));
#125=FACE_OUTER_BOUND('',#124,.T.);
#126=CARTESIAN_POINT('',(1.66804226065181,-4.03597886967408,-0.646381810100901));
#127=CARTESIAN_POINT('',(1.66804226065181,1.96402113032592,-0.646381810100901));
#128=CARTESIAN_POINT('',(1.66803859119413,-4.03597886967408,-0.646392179450417));
#129=CARTESIAN_POINT('',(1.66803859119413,1.96402113032592,-0.646392179450417));
#130=CARTESIAN_POINT('',(1.66181997137122,-4.03597886967408,-0.663966025248028));
#131=CARTESIAN_POINT('',(1.66181997137122,1.96402113032592,-0.663966025248028));
#132=CARTESIAN_POINT('',(1.64233460319822,-4.03597886967408,-0.674021130371076));
#133=CARTESIAN_POINT('',(1.64233460319822,1.96402113032592,-0.674021130371076));
#134=CARTESIAN_POINT('',(1.62999999999999,-4.03597886967408,-0.674021130325903));
#135=CARTESIAN_POINT('',(1.62999999999999,1.96402113032592,-0.674021130325903));
#136=B_SPLINE_SURFACE_WITH_KNOTS('',3,1,
((#126,#127),(#128,#129),(#130,#131),(#132,#133),(#134,#135)),
.UNSPECIFIED.,.F.,.F.,.F.,(4,1,4),(2,2),
(0.00000000000000,0.500000000000000,1.00000000000000),(-3.00000000000000,3.00000000000000),.UNSPECIFIED.);
#137=ADVANCED_FACE('',(#125),#136,.T.);
#138=CARTESIAN_POINT('',(1.66804226065181,1.96402113032592,-0.621660450550904));
#139=VERTEX_POINT('',#138);
#140=CARTESIAN_POINT('',(1.63000000000000,1.96402113032592,-0.634021130325903));
#141=DIRECTION('',(0.00000000000000,-1.00000000000000,6.12323399573677E-17));
#142=DIRECTION('',(1.00000000000000,0.00000000000000,0.00000000000000));
#143=AXIS2_PLACEMENT_3D('',#140,#141,#142);
#144=CIRCLE('',#143,0.0400000000000000);
#145=EDGE_CURVE('',#98,#139,#144,.T.);
#146=ORIENTED_EDGE('',*,*,#145,.T.);
#147=CARTESIAN_POINT('',(1.66804226065181,-4.03597886967408,-0.621660450550904));
#148=VERTEX_POINT('',#147);
#149=CARTESIAN_POINT('',(1.66804226065181,-1.03597886967408,-0.621660450550904));
#150=DIRECTION('',(0.00000000000000,1.00000000000000,0.00000000000000));
#151=VECTOR('',#150,1.00000000000000);
#152=LINE('',#149,#151);
#153=EDGE_CURVE('',#148,#139,#152,.T.);
#154=ORIENTED_EDGE('',*,*,#153,.F.);
#155=CARTESIAN_POINT('',(1.63000000000000,-4.03597886967408,-0.634021130325903));
#156=DIRECTION('',(0.00000000000000,1.00000000000000,-6.12323399573677E-17));
#157=DIRECTION('',(1.00000000000000,0.00000000000000,0.00000000000000));
#158=AXIS2_PLACEMENT_3D('',#155,#156,#157);
#159=CIRCLE('',#158,0.0400000000000000);
#160=EDGE_CURVE('',#148,#108,#159,.T.);
#161=ORIENTED_EDGE('',*,*,#160,.T.);
#162=ORIENTED_EDGE('',*,*,#113,.F.);
#163=EDGE_LOOP('',(#146,#154,#161,#162));
#164=FACE_OUTER_BOUND('',#163,.T.);
#165=CARTESIAN_POINT('',(1.63000000000000,-1.03597886967408,-0.634021130325903));
#166=DIRECTION('',(0.00000000000000,1.00000000000000,0.00000000000000));
#167=DIRECTION('',(-1.00000000000000,0.00000000000000,0.00000000000000));
#168=AXIS2_PLACEMENT_3D('',#165,#166,#167);
#169=CYLINDRICAL_SURFACE('',#168,0.0400000000000000);
#170=ADVANCED_FACE('',(#164),#169,.T.);
#171=CARTESIAN_POINT('',(1.63000000000000,1.96402113032592,-0.594021130325903));
#172=VERTEX_POINT('',#171);
#173=CARTESIAN_POINT('',(1.66804226065181,1.96402113032592,-0.621660450550904));
#174=CARTESIAN_POINT('',(1.66803859119413,1.96402113032592,-0.621650081200599));
#175=CARTESIAN_POINT('',(1.66181997137127,1.96402113032592,-0.604076235404044));
#176=CARTESIAN_POINT('',(1.64233460319816,1.96402113032592,-0.594021130281025));
#177=CARTESIAN_POINT('',(1.63000000000003,1.96402113032592,-0.594021130325903));
#178=B_SPLINE_CURVE_WITH_KNOTS('',3,(#173,#174,#175,#176,#177),.UNSPECIFIED.,.F.,.F.,(4,1,4),(-1.00000000000000,-0.500000000000000,-0.00000000000000),.UNSPECIFIED.);
#179=EDGE_CURVE('',#139,#172,#178,.T.);
#180=ORIENTED_EDGE('',*,*,#179,.T.);
#181=CARTESIAN_POINT('',(1.63000000000000,-4.03597886967408,-0.594021130325903));
#182=VERTEX_POINT('',#181);
#183=CARTESIAN_POINT('',(1.63000000000000,-1.03597886967408,-0.594021130325903));
#184=DIRECTION('',(0.00000000000000,-1.00000000000000,0.00000000000000));
#185=VECTOR('',#184,1.00000000000000);
#186=LINE('',#183,#185);
#187=EDGE_CURVE('',#172,#182,#186,.T.);
#188=ORIENTED_EDGE('',*,*,#187,.T.);
#189=CARTESIAN_POINT('',(1.63000000000003,-4.03597886967408,-0.594021130325903));
#190=CARTESIAN_POINT('',(1.64233460319816,-4.03597886967408,-0.594021130281025));
#191=CARTESIAN_POINT('',(1.66181997137127,-4.03597886967408,-0.604076235404044));
#192=CARTESIAN_POINT('',(1.66803859119413,-4.03597886967408,-0.621650081200599));
#193=CARTESIAN_POINT('',(1.66804226065181,-4.03597886967408,-0.621660450550904));
#194=B_SPLINE_CURVE_WITH_KNOTS('',3,(#189,#190,#191,#192,#193),.UNSPECIFIED.,.F.,.F.,(4,1,4),(0.00000000000000,0.500000000000000,1.00000000000000),.UNSPECIFIED.);
#195=EDGE_CURVE('',#182,#148,#194,.T.);
#196=ORIENTED_EDGE('',*,*,#195,.T.);
#197=ORIENTED_EDGE('',*,*,#153,.T.);
#198=EDGE_LOOP('',(#180,#188,#196,#197));
#199=FACE_OUTER_BOUND('',#198,.T.);
#200=CARTESIAN_POINT('',(1.63000000000003,-4.03597886967408,-0.594021130325903));
#201=CARTESIAN_POINT('',(1.63000000000003,1.96402113032592,-0.594021130325903));
#202=CARTESIAN_POINT('',(1.64233460319816,-4.03597886967408,-0.594021130281025));
#203=CARTESIAN_POINT('',(1.64233460319816,1.96402113032592,-0.594021130281025));
#204=CARTESIAN_POINT('',(1.66181997137127,-4.03597886967408,-0.604076235404044));
#205=CARTESIAN_POINT('',(1.66181997137127,1.96402113032592,-0.604076235404044));
#206=CARTESIAN_POINT('',(1.66803859119413,-4.03597886967408,-0.621650081200599));
#207=CARTESIAN_POINT('',(1.66803859119413,1.96402113032592,-0.621650081200599));
#208=CARTESIAN_POINT('',(1.66804226065181,-4.03597886967408,-0.621660450550904));
#209=CARTESIAN_POINT('',(1.66804226065181,1.96402113032592,-0.621660450550904));
#210=B_SPLINE_SURFACE_WITH_KNOTS('',3,1,
((#200,#201),(#202,#203),(#204,#205),(#206,#207),(#208,#209)),
.UNSPECIFIED.,.F.,.F.,.F.,(4,1,4),(2,2),
(0.00000000000000,0.500000000000000,1.00000000000000),(-3.00000000000000,3.00000000000000),.UNSPECIFIED.);
#211=ADVANCED_FACE('',(#199),#210,.T.);
#212=CARTESIAN_POINT('',(0.0200000000000000,1.96402113032592,-0.594021130325903));
#213=VERTEX_POINT('',#212);
#214=CARTESIAN_POINT('',(1.16804226065181,1.96402113032592,-0.594021130325903));
#215=DIRECTION('',(-1.00000000000000,-0.00000000000000,-0.00000000000000));
#216=VECTOR('',#215,1.00000000000000);
#217=LINE('',#214,#216);
#218=EDGE_CURVE('',#172,#213,#217,.T.);
#219=ORIENTED_EDGE('',*,*,#218,.T.);
#220=CARTESIAN_POINT('',(0.0200000000000000,-4.03597886967408,-0.594021130325903));
#221=VERTEX_POINT('',#220);
#222=CARTESIAN_POINT('',(0.0200000000000000,-1.03597886967408,-0.594021130325903));
#223=DIRECTION('',(0.00000000000000,1.00000000000000,0.00000000000000));
#224=VECTOR('',#223,1.00000000000000);
#225=LINE('',#222,#224);
#226=EDGE_CURVE('',#221,#213,#225,.T.);
#227=ORIENTED_EDGE('',*,*,#226,.F.);
#228=CARTESIAN_POINT('',(1.16804226065181,-4.03597886967408,-0.594021130325903));
#229=DIRECTION('',(1.00000000000000,0.00000000000000,0.00000000000000));
#230=VECTOR('',#229,1.00000000000000);
#231=LINE('',#228,#230);
#232=EDGE_CURVE('',#221,#182,#231,.T.);
#233=ORIENTED_EDGE('',*,*,#232,.T.);
#234=ORIENTED_EDGE('',*,*,#187,.F.);
#235=EDGE_LOOP('',(#219,#227,#233,#234));
#236=FACE_OUTER_BOUND('',#235,.T.);
#237=CARTESIAN_POINT('',(0.825000000000000,-1.03597886967408,-0.594021130325903));
#238=DIRECTION('',(0.00000000000000,0.00000000000000,1.00000000000000));
#239=DIRECTION('',(1.00000000000000,0.00000000000000,0.00000000000000));
#240=AXIS2_PLACEMENT_3D('',#237,#238,#239);
#241=PLANE('',#240);
#242=ADVANCED_FACE('',(#236),#241,.T.);
#243=CARTESIAN_POINT('',(0.00000000000000,1.96402113032592,-0.574021130325903));
#244=VERTEX_POINT('',#243);
#245=CARTESIAN_POINT('',(0.0200000000000000,1.96402113032592,-0.574021130325903));
#246=DIRECTION('',(0.00000000000000,1.00000000000000,-1.22464679914735E-16));
#247=DIRECTION('',(0.00000000000000,-1.22464679914735E-16,-1.00000000000000));
#248=AXIS2_PLACEMENT_3D('',#245,#246,#247);
#249=CIRCLE('',#248,0.0200000000000000);
#250=EDGE_CURVE('',#213,#244,#249,.T.);
#251=ORIENTED_EDGE('',*,*,#250,.T.);
#252=CARTESIAN_POINT('',(0.00000000000000,-4.03597886967408,-0.574021130325903));
#253=VERTEX_POINT('',#252);
#254=CARTESIAN_POINT('',(0.00000000000000,-1.03597886967408,-0.574021130325903));
#255=DIRECTION('',(0.00000000000000,-1.00000000000000,0.00000000000000));
#256=VECTOR('',#255,1.00000000000000);
#257=LINE('',#254,#256);
#258=EDGE_CURVE('',#244,#253,#257,.T.);
#259=ORIENTED_EDGE('',*,*,#258,.T.);
#260=CARTESIAN_POINT('',(0.0200000000000000,-4.03597886967408,-0.574021130325903));
#261=DIRECTION('',(0.00000000000000,-1.00000000000000,1.22464679914735E-16));
#262=DIRECTION('',(0.00000000000000,-1.22464679914735E-16,-1.00000000000000));
#263=AXIS2_PLACEMENT_3D('',#260,#261,#262);
#264=CIRCLE('',#263,0.0200000000000000);
#265=EDGE_CURVE('',#253,#221,#264,.T.);
#266=ORIENTED_EDGE('',*,*,#265,.T.);
#267=ORIENTED_EDGE('',*,*,#226,.T.);
#268=EDGE_LOOP('',(#251,#259,#266,#267));
#269=FACE_OUTER_BOUND('',#268,.T.);
#270=CARTESIAN_POINT('',(0.0200000000000000,-1.03597886967408,-0.574021130325903));
#271=DIRECTION('',(0.00000000000000,1.00000000000000,0.00000000000000));
#272=DIRECTION('',(0.707106781186549,0.00000000000000,0.707106781186546));
#273=AXIS2_PLACEMENT_3D('',#270,#271,#272);
#274=CYLINDRICAL_SURFACE('',#273,0.0200000000000000);
#275=ADVANCED_FACE('',(#269),#274,.F.);
#276=CARTESIAN_POINT('',(0.00000000000000,1.96402113032592,1.03597886967410));
#277=VERTEX_POINT('',#276);
#278=CARTESIAN_POINT('',(0.00000000000000,1.96402113032592,0.574021130325903));
#279=DIRECTION('',(0.00000000000000,0.00000000000000,1.00000000000000));
#280=VECTOR('',#279,1.00000000000000);
#281=LINE('',#278,#280);
#282=EDGE_CURVE('',#244,#277,#281,.T.);
#283=ORIENTED_EDGE('',*,*,#282,.T.);
#284=CARTESIAN_POINT('',(0.00000000000000,-4.03597886967408,1.03597886967410));
#285=VERTEX_POINT('',#284);
#286=CARTESIAN_POINT('',(0.00000000000000,-1.03597886967408,1.03597886967410));
#287=DIRECTION('',(0.00000000000000,1.00000000000000,0.00000000000000));
#288=VECTOR('',#287,1.00000000000000);
#289=LINE('',#286,#288);
#290=EDGE_CURVE('',#285,#277,#289,.T.);
#291=ORIENTED_EDGE('',*,*,#290,.F.);
#292=CARTESIAN_POINT('',(0.00000000000000,-4.03597886967408,0.574021130325903));
#293=DIRECTION('',(0.00000000000000,0.00000000000000,-1.00000000000000));
#294=VECTOR('',#293,1.00000000000000);
#295=LINE('',#292,#294);
#296=EDGE_CURVE('',#285,#253,#295,.T.);
#297=ORIENTED_EDGE('',*,*,#296,.T.);
#298=ORIENTED_EDGE('',*,*,#258,.F.);
#299=EDGE_LOOP('',(#283,#291,#297,#298));
#300=FACE_OUTER_BOUND('',#299,.T.);
#301=CARTESIAN_POINT('',(0.00000000000000,-1.03597886967408,0.230978869674097));
#302=DIRECTION('',(1.00000000000000,-0.00000000000000,0.00000000000000));
#303=DIRECTION('',(0.00000000000000,0.00000000000000,-1.00000000000000));
#304=AXIS2_PLACEMENT_3D('',#301,#302,#303);
#305=PLANE('',#304);
#306=ADVANCED_FACE('',(#300),#305,.T.);
#307=CARTESIAN_POINT('',(-0.0276393202250013,1.96402113032592,1.07402113032590));
#308=VERTEX_POINT('',#307);
#309=CARTESIAN_POINT('',(0.00000000000000,1.96402113032592,1.03597886967408));
#310=CARTESIAN_POINT('',(4.48778791906079E-11,1.96402113032592,1.04831347287395));
#311=CARTESIAN_POINT('',(-0.0100551050778757,1.96402113032592,1.06779884104450));
#312=CARTESIAN_POINT('',(-0.0276289508751897,1.96402113032592,1.07401746086822));
#313=CARTESIAN_POINT('',(-0.0276393202250018,1.96402113032592,1.07402113032590));
#314=B_SPLINE_CURVE_WITH_KNOTS('',3,(#309,#310,#311,#312,#313),.UNSPECIFIED.,.F.,.F.,(4,1,4),(-1.00000000000000,-0.500000000000000,-0.00000000000000),.UNSPECIFIED.);
#315=EDGE_CURVE('',#277,#308,#314,.T.);
#316=ORIENTED_EDGE('',*,*,#315,.T.);
#317=CARTESIAN_POINT('',(-0.0276393202250013,-4.03597886967408,1.07402113032590));
#318=VERTEX_POINT('',#317);
#319=CARTESIAN_POINT('',(-0.0276393202250013,-1.03597886967408,1.07402113032590));
#320=DIRECTION('',(0.00000000000000,-1.00000000000000,0.00000000000000));
#321=VECTOR('',#320,1.00000000000000);
#322=LINE('',#319,#321);
#323=EDGE_CURVE('',#308,#318,#322,.T.);
#324=ORIENTED_EDGE('',*,*,#323,.T.);
#325=CARTESIAN_POINT('',(-0.0276393202250018,-4.03597886967408,1.07402113032590));
#326=CARTESIAN_POINT('',(-0.0276289508751897,-4.03597886967408,1.07401746086822));
#327=CARTESIAN_POINT('',(-0.0100551050778757,-4.03597886967408,1.06779884104450));
#328=CARTESIAN_POINT('',(4.48778791906079E-11,-4.03597886967408,1.04831347287395));
#329=CARTESIAN_POINT('',(0.00000000000000,-4.03597886967408,1.03597886967408));
#330=B_SPLINE_CURVE_WITH_KNOTS('',3,(#325,#326,#327,#328,#329),.UNSPECIFIED.,.F.,.F.,(4,1,4),(0.00000000000000,0.500000000000000,1.00000000000000),.UNSPECIFIED.);
#331=EDGE_CURVE('',#318,#285,#330,.T.);
#332=ORIENTED_EDGE('',*,*,#331,.T.);
#333=ORIENTED_EDGE('',*,*,#290,.T.);
#334=EDGE_LOOP('',(#316,#324,#332,#333));
#335=FACE_OUTER_BOUND('',#334,.T.);
#336=CARTESIAN_POINT('',(-0.0276393202250018,-4.03597886967408,1.07402113032590));
#337=CARTESIAN_POINT('',(-0.0276393202250018,1.96402113032592,1.07402113032590));
#338=CARTESIAN_POINT('',(-0.0276289508751897,-4.03597886967408,1.07401746086822));
#339=CARTESIAN_POINT('',(-0.0276289508751897,1.96402113032592,1.07401746086822));
#340=CARTESIAN_POINT('',(-0.0100551050778757,-4.03597886967408,1.06779884104450));
#341=CARTESIAN_POINT('',(-0.0100551050778757,1.96402113032592,1.06779884104450));
#342=CARTESIAN_POINT('',(4.48778791906079E-11,-4.03597886967408,1.04831347287395));
#343=CARTESIAN_POINT('',(4.48778791906079E-11,1.96402113032592,1.04831347287395));
#344=CARTESIAN_POINT('',(0.00000000000000,-4.03597886967408,1.03597886967408));
#345=CARTESIAN_POINT('',(0.00000000000000,1.96402113032592,1.03597886967408));
#346=B_SPLINE_SURFACE_WITH_KNOTS('',3,1,
((#336,#337),(#338,#339),(#340,#341),(#342,#343),(#344,#345)),
.UNSPECIFIED.,.F.,.F.,.F.,(4,1,4),(2,2),
(0.00000000000000,0.500000000000000,1.00000000000000),(-3.00000000000000,3.00000000000000),.UNSPECIFIED.);
#347=ADVANCED_FACE('',(#335),#346,.T.);
#348=CARTESIAN_POINT('',(-0.0523606797749991,1.96402113032592,1.07402113032590));
#349=VERTEX_POINT('',#348);
#350=CARTESIAN_POINT('',(-0.0400000000000000,1.96402113032592,1.03597886967410));
#351=DIRECTION('',(0.00000000000000,-1.00000000000000,6.12323399573677E-17));
#352=DIRECTION('',(1.00000000000000,0.00000000000000,0.00000000000000));
#353=AXIS2_PLACEMENT_3D('',#350,#351,#352);
#354=CIRCLE('',#353,0.0400000000000000);
#355=EDGE_CURVE('',#308,#349,#354,.T.);
#356=ORIENTED_EDGE('',*,*,#355,.T.);
#357=CARTESIAN_POINT('',(-0.0523606797749991,-4.03597886967408,1.07402113032590));
#358=VERTEX_POINT('',#357);
#359=CARTESIAN_POINT('',(-0.0523606797749991,-1.03597886967408,1.07402113032590));
#360=DIRECTION('',(0.00000000000000,1.00000000000000,0.00000000000000));
#361=VECTOR('',#360,1.00000000000000);
#362=LINE('',#359,#361);
#363=EDGE_CURVE('',#358,#349,#362,.T.);
#364=ORIENTED_EDGE('',*,*,#363,.F.);
#365=CARTESIAN_POINT('',(-0.0400000000000000,-4.03597886967408,1.03597886967410));
#366=DIRECTION('',(0.00000000000000,1.00000000000000,-6.12323399573677E-17));
#367=DIRECTION('',(1.00000000000000,0.00000000000000,0.00000000000000));
#368=AXIS2_PLACEMENT_3D('',#365,#366,#367);
#369=CIRCLE('',#368,0.0400000000000000);
#370=EDGE_CURVE('',#358,#318,#369,.T.);
#371=ORIENTED_EDGE('',*,*,#370,.T.);
#372=ORIENTED_EDGE('',*,*,#323,.F.);
#373=EDGE_LOOP('',(#356,#364,#371,#372));
#374=FACE_OUTER_BOUND('',#373,.T.);
#375=CARTESIAN_POINT('',(-0.0400000000000000,-1.03597886967408,1.03597886967410));
#376=DIRECTION('',(0.00000000000000,1.00000000000000,0.00000000000000));
#377=DIRECTION('',(1.00000000000000,-0.00000000000000,0.00000000000000));
#378=AXIS2_PLACEMENT_3D('',#375,#376,#377);
#379=CYLINDRICAL_SURFACE('',#378,0.0400000000000000);
#380=ADVANCED_FACE('',(#374),#379,.T.);
#381=CARTESIAN_POINT('',(-0.0800000000000001,1.96402113032592,1.03597886967410));
#382=VERTEX_POINT('',#381);
#383=CARTESIAN_POINT('',(-0.0523606797749983,1.96402113032592,1.07402113032590));
#384=CARTESIAN_POINT('',(-0.0523710491252056,1.96402113032592,1.07401746086822));
#385=CARTESIAN_POINT('',(-0.0699448949217607,1.96402113032592,1.06779884104613));
#386=CARTESIAN_POINT('',(-0.0800000000451737,1.96402113032592,1.04831347287073));
#387=CARTESIAN_POINT('',(-0.0800000000000001,1.96402113032592,1.03597886967413));
#388=B_SPLINE_CURVE_WITH_KNOTS('',3,(#383,#384,#385,#386,#387),.UNSPECIFIED.,.F.,.F.,(4,1,4),(-1.00000000000000,-0.500000000000000,-0.00000000000000),.UNSPECIFIED.);
#389=EDGE_CURVE('',#349,#382,#388,.T.);
#390=ORIENTED_EDGE('',*,*,#389,.T.);
#391=CARTESIAN_POINT('',(-0.0800000000000001,-4.03597886967408,1.03597886967410));
#392=VERTEX_POINT('',#391);
#393=CARTESIAN_POINT('',(-0.0800000000000001,-1.03597886967408,1.03597886967410));
#394=DIRECTION('',(0.00000000000000,-1.00000000000000,0.00000000000000));
#395=VECTOR('',#394,1.00000000000000);
#396=LINE('',#393,#395);
#397=EDGE_CURVE('',#382,#392,#396,.T.);
#398=ORIENTED_EDGE('',*,*,#397,.T.);
#399=CARTESIAN_POINT('',(-0.0800000000000001,-4.03597886967408,1.03597886967413));
#400=CARTESIAN_POINT('',(-0.0800000000451737,-4.03597886967408,1.04831347287073));
#401=CARTESIAN_POINT('',(-0.0699448949217607,-4.03597886967408,1.06779884104613));
#402=CARTESIAN_POINT('',(-0.0523710491252056,-4.03597886967408,1.07401746086822));
#403=CARTESIAN_POINT('',(-0.0523606797749983,-4.03597886967408,1.07402113032590));
#404=B_SPLINE_CURVE_WITH_KNOTS('',3,(#399,#400,#401,#402,#403),.UNSPECIFIED.,.F.,.F.,(4,1,4),(0.00000000000000,0.500000000000000,1.00000000000000),.UNSPECIFIED.);
#405=EDGE_CURVE('',#392,#358,#404,.T.);
#406=ORIENTED_EDGE('',*,*,#405,.T.);
#407=ORIENTED_EDGE('',*,*,#363,.T.);
#408=EDGE_LOOP('',(#390,#398,#406,#407));
#409=FACE_OUTER_BOUND('',#408,.T.);
#410=CARTESIAN_POINT('',(-0.0800000000000001,-4.03597886967408,1.03597886967413));
#411=CARTESIAN_POINT('',(-0.0800000000000001,1.96402113032592,1.03597886967413));
#412=CARTESIAN_POINT('',(-0.0800000000451737,-4.03597886967408,1.04831347287073));
#413=CARTESIAN_POINT('',(-0.0800000000451737,1.96402113032592,1.04831347287073));
#414=CARTESIAN_POINT('',(-0.0699448949217607,-4.03597886967408,1.06779884104613));
#415=CARTESIAN_POINT('',(-0.0699448949217607,1.96402113032592,1.06779884104613));
#416=CARTESIAN_POINT('',(-0.0523710491252056,-4.03597886967408,1.07401746086822));
#417=CARTESIAN_POINT('',(-0.0523710491252056,1.96402113032592,1.07401746086822));
#418=CARTESIAN_POINT('',(-0.0523606797749983,-4.03597886967408,1.07402113032590));
#419=CARTESIAN_POINT('',(-0.0523606797749983,1.96402113032592,1.07402113032590));
#420=B_SPLINE_SURFACE_WITH_KNOTS('',3,1,
((#410,#411),(#412,#413),(#414,#415),(#416,#417),(#418,#419)),
.UNSPECIFIED.,.F.,.F.,.F.,(4,1,4),(2,2),
(0.00000000000000,0.500000000000000,1.00000000000000),(-3.00000000000000,3.00000000000000),.UNSPECIFIED.);
#421=ADVANCED_FACE('',(#409),#420,.T.);
#422=CARTESIAN_POINT('',(-0.0800000000000001,1.96402113032592,0.574021130325903));
#423=DIRECTION('',(-0.00000000000000,-0.00000000000000,-1.00000000000000));
#424=VECTOR('',#423,1.00000000000000);
#425=LINE('',#422,#424);
#426=EDGE_CURVE('',#382,#25,#425,.T.);
#427=ORIENTED_EDGE('',*,*,#426,.T.);
#428=ORIENTED_EDGE('',*,*,#56,.F.);
#429=CARTESIAN_POINT('',(-0.0800000000000001,-4.03597886967408,0.574021130325903));
#430=DIRECTION('',(0.00000000000000,0.00000000000000,1.00000000000000));
#431=VECTOR('',#430,1.00000000000000);
#432=LINE('',#429,#431);
#433=EDGE_CURVE('',#44,#392,#432,.T.);
#434=ORIENTED_EDGE('',*,*,#433,.T.);
#435=ORIENTED_EDGE('',*,*,#397,.F.);
#436=EDGE_LOOP('',(#427,#428,#434,#435));
#437=FACE_OUTER_BOUND('',#436,.T.);
#438=CARTESIAN_POINT('',(-0.0800000000000001,-1.03597886967408,0.230978869674097));
#439=DIRECTION('',(-1.00000000000000,0.00000000000000,0.00000000000000));
#440=DIRECTION('',(0.00000000000000,0.00000000000000,1.00000000000000));
#441=AXIS2_PLACEMENT_3D('',#438,#439,#440);
#442=PLANE('',#441);
#443=ADVANCED_FACE('',(#437),#442,.T.);
#444=ORIENTED_EDGE('',*,*,#33,.F.);
#445=ORIENTED_EDGE('',*,*,#426,.F.);
#446=ORIENTED_EDGE('',*,*,#389,.F.);
#447=ORIENTED_EDGE('',*,*,#355,.F.);
#448=ORIENTED_EDGE('',*,*,#315,.F.);
#449=ORIENTED_EDGE('',*,*,#282,.F.);
#450=ORIENTED_EDGE('',*,*,#250,.F.);
#451=ORIENTED_EDGE('',*,*,#218,.F.);
#452=ORIENTED_EDGE('',*,*,#179,.F.);
#453=ORIENTED_EDGE('',*,*,#145,.F.);
#454=ORIENTED_EDGE('',*,*,#105,.F.);
#455=ORIENTED_EDGE('',*,*,#72,.F.);
#456=EDGE_LOOP('',(#444,#445,#446,#447,#448,#449,#450,#451,#452,#453,#454,#455));
#457=FACE_OUTER_BOUND('',#456,.T.);
#458=CARTESIAN_POINT('',(-0.0800000000000001,1.96402113032592,0.718302081267828));
#459=DIRECTION('',(0.00000000000000,1.00000000000000,0.00000000000000));
#460=DIRECTION('',(-1.00000000000000,0.00000000000000,0.00000000000000));
#461=AXIS2_PLACEMENT_3D('',#458,#459,#460);
#462=PLANE('',#461);
#463=ADVANCED_FACE('',(#457),#462,.T.);
#464=ORIENTED_EDGE('',*,*,#405,.F.);
#465=ORIENTED_EDGE('',*,*,#433,.F.);
#466=ORIENTED_EDGE('',*,*,#50,.F.);
#467=ORIENTED_EDGE('',*,*,#86,.F.);
#468=ORIENTED_EDGE('',*,*,#121,.F.);
#469=ORIENTED_EDGE('',*,*,#160,.F.);
#470=ORIENTED_EDGE('',*,*,#195,.F.);
#471=ORIENTED_EDGE('',*,*,#232,.F.);
#472=ORIENTED_EDGE('',*,*,#265,.F.);
#473=ORIENTED_EDGE('',*,*,#296,.F.);
#474=ORIENTED_EDGE('',*,*,#331,.F.);
#475=ORIENTED_EDGE('',*,*,#370,.F.);
#476=EDGE_LOOP('',(#464,#465,#466,#467,#468,#469,#470,#471,#472,#473,#474,#475));
#477=FACE_OUTER_BOUND('',#476,.T.);
#478=CARTESIAN_POINT('',(-0.0800000000000001,-4.03597886967408,0.718302081267828));
#479=DIRECTION('',(0.00000000000000,1.00000000000000,0.00000000000000));
#480=DIRECTION('',(-1.00000000000000,0.00000000000000,0.00000000000000));
#481=AXIS2_PLACEMENT_3D('',#478,#479,#480);
#482=PLANE('',#481);
#483=ADVANCED_FACE('',(#477),#482,.F.);
#484=CLOSED_SHELL('',(#65,#96,#137,#170,#211,#242,#275,#306,#347,#380,#421,#443,#463,#483));
#485=MANIFOLD_SOLID_BREP('',#484);
#486=COLOUR_RGB('',1.00000000000000,0.00000000000000,0.00000000000000);
#487=FILL_AREA_STYLE_COLOUR('',#486);
#488=FILL_AREA_STYLE('',(#487));
#489=SURFACE_STYLE_FILL_AREA(#488);
#490=SURFACE_SIDE_STYLE('',(#489));
#491=SURFACE_STYLE_USAGE(.BOTH.,#490);
#492=PRESENTATION_STYLE_ASSIGNMENT((#491));
#493=STYLED_ITEM('',(#492),#485);
#494=ADVANCED_BREP_SHAPE_REPRESENTATION('',(#485,#23),#18);
#495=PRODUCT('','','',(#2));
#496=PRODUCT_DEFINITION_FORMATION_WITH_SPECIFIED_SOURCE('','',#495,.NOT_KNOWN.);
#497=PRODUCT_CATEGORY('part','');
#498=PRODUCT_RELATED_PRODUCT_CATEGORY('detail','',(#495));
#499=PRODUCT_CATEGORY_RELATIONSHIP('','',#497,#498);
#500=PRODUCT_DEFINITION('','',#496,#1);
#501=PRODUCT_DEFINITION_SHAPE('NONE','NONE',#500);
#502=SHAPE_DEFINITION_REPRESENTATION(#501,#494);
#503=PRESENTATION_LAYER_ASSIGNMENT('1','Unnamed [1]',(#485));
ENDSEC;
END-ISO-10303-21;
