ISO-10303-21;
HEADER;
FILE_DESCRIPTION(('', 'CAx-IF Rec.Pracs.---Representation and Presentation of Product Manufacturing Information (PMI)---4.0---2014-10-13'),'2;1');
FILE_NAME('C:/Program Files/Kubotek/KeyCreatorPro.2021.SP1/STEP/SG2363.STP', '2021-04-07T12:06:02',(''), (''), 'Kubotek Kosmos Version 3.0.7268.7268', 'KeyCreator Pro', '');
FILE_SCHEMA(('AP242_MANAGED_MODEL_BASED_3D_ENGINEERING_MIM_LF  { 1 0 10303 442 1 1 4 }'));
ENDSEC;
DATA;
#1=PRODUCT_DEFINITION_CONTEXT('',#4,'design');
#2=PRODUCT_CONTEXT('',#4,'mechanical');
#3=APPLICATION_PROTOCOL_DEFINITION('international standard','ap242_managed_model_based_3d_engineering',2011,#4);
#4=APPLICATION_CONTEXT('managed model based 3d engineering');
#10=DIMENSIONAL_EXPONENTS(1.0,0.0,0.0,0.0,0.0,0.0,0.0);
#11=DIMENSIONAL_EXPONENTS(0.0,0.0,0.0,0.0,0.0,0.0,0.0);
#12=(LENGTH_UNIT()NAMED_UNIT(#10)SI_UNIT(.MILLI.,.METRE.));
#13=(NAMED_UNIT(#11)PLANE_ANGLE_UNIT()SI_UNIT($,.RADIAN.));
#14=(NAMED_UNIT(#11)SI_UNIT($,.STERADIAN.)SOLID_ANGLE_UNIT());
#15=LENGTH_MEASURE_WITH_UNIT(LENGTH_MEASURE(25.4),#12);
#16= (CONVERSION_BASED_UNIT('INCH',#15)LENGTH_UNIT()NAMED_UNIT(#10));
#17=UNCERTAINTY_MEASURE_WITH_UNIT(LENGTH_MEASURE(1.0E-006),#16,'','');
#18=(GEOMETRIC_REPRESENTATION_CONTEXT(3)GLOBAL_UNCERTAINTY_ASSIGNED_CONTEXT((#17))GLOBAL_UNIT_ASSIGNED_CONTEXT((#16,#13,#14))REPRESENTATION_CONTEXT('NONE','WORKSPACE'));
#20=CARTESIAN_POINT('',(0.00000000000000,0.00000000000000,0.00000000000000));
#21=DIRECTION('',(0.00000000000000,0.00000000000000,1.00000000000000));
#22=DIRECTION('',(1.00000000000000,0.00000000000000,0.00000000000000));
#23=AXIS2_PLACEMENT_3D('',#20,#21,#22);
#24=CARTESIAN_POINT('',(0.477494193884607,-3.25996033690671,0.219278827170513));
#25=VERTEX_POINT('',#24);
#26=CARTESIAN_POINT('',(0.477494193884607,2.74003966309329,0.219278827170513));
#27=VERTEX_POINT('',#26);
#28=CARTESIAN_POINT('',(0.477494193884607,-0.259960336906712,0.219278827170513));
#29=DIRECTION('',(0.00000000000000,1.00000000000000,0.00000000000000));
#30=VECTOR('',#29,1.00000000000000);
#31=LINE('',#28,#30);
#32=EDGE_CURVE('',#25,#27,#31,.T.);
#33=ORIENTED_EDGE('',*,*,#32,.T.);
#34=CARTESIAN_POINT('',(0.437500000000000,2.74003966309329,0.259960336906712));
#35=VERTEX_POINT('',#34);
#36=CARTESIAN_POINT('',(0.437500000000001,2.74003966309329,0.219960336906710));
#37=DIRECTION('',(-1.64214663788065E-47,-1.00000000000000,6.12323399573677E-17));
#38=DIRECTION('',(-1.00000000000000,7.49879891330929E-33,1.22464679914735E-16));
#39=AXIS2_PLACEMENT_3D('',#36,#37,#38);
#40=CIRCLE('',#39,0.0400000000000000);
#41=EDGE_CURVE('',#27,#35,#40,.T.);
#42=ORIENTED_EDGE('',*,*,#41,.T.);
#43=CARTESIAN_POINT('',(0.437500000000000,-3.25996033690671,0.259960336906712));
#44=VERTEX_POINT('',#43);
#45=CARTESIAN_POINT('',(0.437500000000000,-0.259960336906712,0.259960336906712));
#46=DIRECTION('',(0.00000000000000,-1.00000000000000,0.00000000000000));
#47=VECTOR('',#46,1.00000000000000);
#48=LINE('',#45,#47);
#49=EDGE_CURVE('',#35,#44,#48,.T.);
#50=ORIENTED_EDGE('',*,*,#49,.T.);
#51=CARTESIAN_POINT('',(0.437500000000001,-3.25996033690671,0.219960336906710));
#52=DIRECTION('',(1.64214663788065E-47,1.00000000000000,-6.12323399573677E-17));
#53=DIRECTION('',(-1.00000000000000,7.49879891330929E-33,1.22464679914735E-16));
#54=AXIS2_PLACEMENT_3D('',#51,#52,#53);
#55=CIRCLE('',#54,0.0400000000000000);
#56=EDGE_CURVE('',#44,#25,#55,.T.);
#57=ORIENTED_EDGE('',*,*,#56,.T.);
#58=EDGE_LOOP('',(#33,#42,#50,#57));
#59=FACE_OUTER_BOUND('',#58,.T.);
#60=CARTESIAN_POINT('',(0.437500000000001,-0.259960336906712,0.219960336906710));
#61=DIRECTION('',(0.00000000000000,1.00000000000000,0.00000000000000));
#62=DIRECTION('',(-1.00000000000000,0.00000000000000,1.22464679914735E-16));
#63=AXIS2_PLACEMENT_3D('',#60,#61,#62);
#64=CYLINDRICAL_SURFACE('',#63,0.0400000000000000);
#65=ADVANCED_FACE('',(#59),#64,.T.);
#66=ORIENTED_EDGE('',*,*,#49,.F.);
#67=CARTESIAN_POINT('',(-0.437499999999999,2.74003966309329,0.259960336906710));
#68=VERTEX_POINT('',#67);
#69=CARTESIAN_POINT('',(0.437500000000000,2.74003966309329,0.259960336906712));
#70=DIRECTION('',(-1.00000000000000,0.00000000000000,0.00000000000000));
#71=VECTOR('',#70,1.00000000000000);
#72=LINE('',#69,#71);
#73=EDGE_CURVE('',#35,#68,#72,.T.);
#74=ORIENTED_EDGE('',*,*,#73,.T.);
#75=CARTESIAN_POINT('',(-0.437499999999999,-3.25996033690671,0.259960336906710));
#76=VERTEX_POINT('',#75);
#77=CARTESIAN_POINT('',(-0.437499999999999,-0.259960336906712,0.259960336906710));
#78=DIRECTION('',(0.00000000000000,1.00000000000000,0.00000000000000));
#79=VECTOR('',#78,1.00000000000000);
#80=LINE('',#77,#79);
#81=EDGE_CURVE('',#76,#68,#80,.T.);
#82=ORIENTED_EDGE('',*,*,#81,.F.);
#83=CARTESIAN_POINT('',(0.437500000000000,-3.25996033690671,0.259960336906712));
#84=DIRECTION('',(1.00000000000000,0.00000000000000,0.00000000000000));
#85=VECTOR('',#84,1.00000000000000);
#86=LINE('',#83,#85);
#87=EDGE_CURVE('',#76,#44,#86,.T.);
#88=ORIENTED_EDGE('',*,*,#87,.T.);
#89=EDGE_LOOP('',(#66,#74,#82,#88));
#90=FACE_OUTER_BOUND('',#89,.T.);
#91=CARTESIAN_POINT('',(3.88578058618805E-16,-0.259960336906712,0.259960336906712));
#92=DIRECTION('',(0.00000000000000,-0.00000000000000,1.00000000000000));
#93=DIRECTION('',(1.00000000000000,-0.00000000000000,-0.00000000000000));
#94=AXIS2_PLACEMENT_3D('',#91,#92,#93);
#95=PLANE('',#94);
#96=ADVANCED_FACE('',(#90),#95,.T.);
#97=ORIENTED_EDGE('',*,*,#81,.T.);
#98=CARTESIAN_POINT('',(-0.477494193884605,2.74003966309329,0.219278827170513));
#99=VERTEX_POINT('',#98);
#100=CARTESIAN_POINT('',(-0.437499999999999,2.74003966309329,0.219960336906710));
#101=DIRECTION('',(3.85185988877447E-34,-1.00000000000000,6.12323399573677E-17));
#102=DIRECTION('',(0.0170377434049270,-6.12234519065770E-17,-0.999854847115154));
#103=AXIS2_PLACEMENT_3D('',#100,#101,#102);
#104=CIRCLE('',#103,0.0400000000000000);
#105=EDGE_CURVE('',#68,#99,#104,.T.);
#106=ORIENTED_EDGE('',*,*,#105,.T.);
#107=CARTESIAN_POINT('',(-0.477494193884605,-3.25996033690671,0.219278827170513));
#108=VERTEX_POINT('',#107);
#109=CARTESIAN_POINT('',(-0.477494193884605,-0.259960336906712,0.219278827170513));
#110=DIRECTION('',(0.00000000000000,-1.00000000000000,0.00000000000000));
#111=VECTOR('',#110,1.00000000000000);
#112=LINE('',#109,#111);
#113=EDGE_CURVE('',#99,#108,#112,.T.);
#114=ORIENTED_EDGE('',*,*,#113,.T.);
#115=CARTESIAN_POINT('',(-0.437499999999999,-3.25996033690671,0.219960336906710));
#116=DIRECTION('',(-3.85185988877447E-34,1.00000000000000,-6.12323399573677E-17));
#117=DIRECTION('',(0.0170377434049270,-6.12234519065770E-17,-0.999854847115154));
#118=AXIS2_PLACEMENT_3D('',#115,#116,#117);
#119=CIRCLE('',#118,0.0400000000000000);
#120=EDGE_CURVE('',#108,#76,#119,.T.);
#121=ORIENTED_EDGE('',*,*,#120,.T.);
#122=EDGE_LOOP('',(#97,#106,#114,#121));
#123=FACE_OUTER_BOUND('',#122,.T.);
#124=CARTESIAN_POINT('',(-0.437499999999999,-0.259960336906712,0.219960336906710));
#125=DIRECTION('',(0.00000000000000,1.00000000000000,0.00000000000000));
#126=DIRECTION('',(0.0170377434049270,0.00000000000000,-0.999854847115154));
#127=AXIS2_PLACEMENT_3D('',#124,#125,#126);
#128=CYLINDRICAL_SURFACE('',#127,0.0400000000000000);
#129=ADVANCED_FACE('',(#123),#128,.T.);
#130=ORIENTED_EDGE('',*,*,#113,.F.);
#131=CARTESIAN_POINT('',(-0.469996460140301,2.74003966309329,-0.220723422449870));
#132=VERTEX_POINT('',#131);
#133=CARTESIAN_POINT('',(-0.477494193884606,2.74003966309329,0.219278827170514));
#134=DIRECTION('',(0.0170377434049272,0.00000000000000,-0.999854847115154));
#135=VECTOR('',#134,1.00000000000000);
#136=LINE('',#133,#135);
#137=EDGE_CURVE('',#99,#132,#136,.T.);
#138=ORIENTED_EDGE('',*,*,#137,.T.);
#139=CARTESIAN_POINT('',(-0.469996460140301,-3.25996033690671,-0.220723422449870));
#140=VERTEX_POINT('',#139);
#141=CARTESIAN_POINT('',(-0.469996460140301,-0.259960336906712,-0.220723422449870));
#142=DIRECTION('',(0.00000000000000,1.00000000000000,0.00000000000000));
#143=VECTOR('',#142,1.00000000000000);
#144=LINE('',#141,#143);
#145=EDGE_CURVE('',#140,#132,#144,.T.);
#146=ORIENTED_EDGE('',*,*,#145,.F.);
#147=CARTESIAN_POINT('',(-0.477494193884606,-3.25996033690671,0.219278827170514));
#148=DIRECTION('',(-0.0170377434049272,0.00000000000000,0.999854847115154));
#149=VECTOR('',#148,1.00000000000000);
#150=LINE('',#147,#149);
#151=EDGE_CURVE('',#140,#108,#150,.T.);
#152=ORIENTED_EDGE('',*,*,#151,.T.);
#153=EDGE_LOOP('',(#130,#138,#146,#152));
#154=FACE_OUTER_BOUND('',#153,.T.);
#155=CARTESIAN_POINT('',(-0.473745327012453,-0.259960336906712,-0.000722297639678599));
#156=DIRECTION('',(-0.999854847115154,0.00000000000000,-0.0170377434049272));
#157=DIRECTION('',(-0.0170377434049272,-0.00000000000000,0.999854847115154));
#158=AXIS2_PLACEMENT_3D('',#155,#156,#157);
#159=PLANE('',#158);
#160=ADVANCED_FACE('',(#154),#159,.T.);
#161=ORIENTED_EDGE('',*,*,#145,.T.);
#162=CARTESIAN_POINT('',(-0.430003656325134,2.74003966309329,-0.219960336906711));
#163=VERTEX_POINT('',#162);
#164=CARTESIAN_POINT('',(-0.450000836462167,2.74003966309329,-0.220301093192466));
#165=DIRECTION('',(-2.33546603348189E-18,-1.00000000000000,-4.45620260816460E-20));
#166=DIRECTION('',(-0.0190770988954113,0.00000000000000,0.999818015589705));
#167=AXIS2_PLACEMENT_3D('',#164,#165,#166);
#168=CIRCLE('',#167,0.0200000832068073);
#169=EDGE_CURVE('',#132,#163,#168,.T.);
#170=ORIENTED_EDGE('',*,*,#169,.T.);
#171=CARTESIAN_POINT('',(-0.430003656325134,-3.25996033690671,-0.219960336906711));
#172=VERTEX_POINT('',#171);
#173=CARTESIAN_POINT('',(-0.430003656325134,-0.259960336906712,-0.219960336906711));
#174=DIRECTION('',(0.00000000000000,-1.00000000000000,0.00000000000000));
#175=VECTOR('',#174,1.00000000000000);
#176=LINE('',#173,#175);
#177=EDGE_CURVE('',#163,#172,#176,.T.);
#178=ORIENTED_EDGE('',*,*,#177,.T.);
#179=CARTESIAN_POINT('',(-0.450000836462167,-3.25996033690671,-0.220301093192466));
#180=DIRECTION('',(2.33546603348189E-18,1.00000000000000,4.45620260816460E-20));
#181=DIRECTION('',(-0.0190770988954113,0.00000000000000,0.999818015589705));
#182=AXIS2_PLACEMENT_3D('',#179,#180,#181);
#183=CIRCLE('',#182,0.0200000832068073);
#184=EDGE_CURVE('',#172,#140,#183,.T.);
#185=ORIENTED_EDGE('',*,*,#184,.T.);
#186=EDGE_LOOP('',(#161,#170,#178,#185));
#187=FACE_OUTER_BOUND('',#186,.T.);
#188=CARTESIAN_POINT('',(-0.450000836462167,-0.259960336906712,-0.220301093192466));
#189=DIRECTION('',(0.00000000000000,1.00000000000000,0.00000000000000));
#190=DIRECTION('',(-0.0190770988954113,0.00000000000000,0.999818015589705));
#191=AXIS2_PLACEMENT_3D('',#188,#189,#190);
#192=CYLINDRICAL_SURFACE('',#191,0.0200000832068073);
#193=ADVANCED_FACE('',(#187),#192,.T.);
#194=ORIENTED_EDGE('',*,*,#177,.F.);
#195=CARTESIAN_POINT('',(-0.437500000000000,2.74003966309329,0.219960336906711));
#196=VERTEX_POINT('',#195);
#197=CARTESIAN_POINT('',(-0.437500000000000,2.74003966309329,0.219960336906711));
#198=DIRECTION('',(-0.0170377434049274,0.00000000000000,0.999854847115154));
#199=VECTOR('',#198,1.00000000000000);
#200=LINE('',#197,#199);
#201=EDGE_CURVE('',#163,#196,#200,.T.);
#202=ORIENTED_EDGE('',*,*,#201,.T.);
#203=CARTESIAN_POINT('',(-0.437500000000000,-3.25996033690671,0.219960336906711));
#204=VERTEX_POINT('',#203);
#205=CARTESIAN_POINT('',(-0.437500000000000,-0.259960336906712,0.219960336906711));
#206=DIRECTION('',(0.00000000000000,-1.00000000000000,0.00000000000000));
#207=VECTOR('',#206,1.00000000000000);
#208=LINE('',#205,#207);
#209=EDGE_CURVE('',#196,#204,#208,.T.);
#210=ORIENTED_EDGE('',*,*,#209,.T.);
#211=CARTESIAN_POINT('',(-0.437500000000000,-3.25996033690671,0.219960336906711));
#212=DIRECTION('',(0.0170377434049274,0.00000000000000,-0.999854847115154));
#213=VECTOR('',#212,1.00000000000000);
#214=LINE('',#211,#213);
#215=EDGE_CURVE('',#204,#172,#214,.T.);
#216=ORIENTED_EDGE('',*,*,#215,.T.);
#217=EDGE_LOOP('',(#194,#202,#210,#216));
#218=FACE_OUTER_BOUND('',#217,.T.);
#219=CARTESIAN_POINT('',(-0.433751828162567,-0.259960336906712,2.77555756156289E-17));
#220=DIRECTION('',(0.999854847115154,-0.00000000000000,0.0170377434049274));
#221=DIRECTION('',(0.0170377434049274,0.00000000000000,-0.999854847115154));
#222=AXIS2_PLACEMENT_3D('',#219,#220,#221);
#223=PLANE('',#222);
#224=ADVANCED_FACE('',(#218),#223,.T.);
#225=ORIENTED_EDGE('',*,*,#209,.F.);
#226=CARTESIAN_POINT('',(0.437500000000000,2.74003966309329,0.219960336906712));
#227=VERTEX_POINT('',#226);
#228=CARTESIAN_POINT('',(0.437500000000000,2.74003966309329,0.219960336906712));
#229=DIRECTION('',(1.00000000000000,0.00000000000000,0.00000000000000));
#230=VECTOR('',#229,1.00000000000000);
#231=LINE('',#228,#230);
#232=EDGE_CURVE('',#196,#227,#231,.T.);
#233=ORIENTED_EDGE('',*,*,#232,.T.);
#234=CARTESIAN_POINT('',(0.437500000000000,-3.25996033690671,0.219960336906712));
#235=VERTEX_POINT('',#234);
#236=CARTESIAN_POINT('',(0.437500000000000,-0.259960336906712,0.219960336906712));
#237=DIRECTION('',(0.00000000000000,-1.00000000000000,0.00000000000000));
#238=VECTOR('',#237,1.00000000000000);
#239=LINE('',#236,#238);
#240=EDGE_CURVE('',#227,#235,#239,.T.);
#241=ORIENTED_EDGE('',*,*,#240,.T.);
#242=CARTESIAN_POINT('',(0.437500000000000,-3.25996033690671,0.219960336906712));
#243=DIRECTION('',(-1.00000000000000,0.00000000000000,0.00000000000000));
#244=VECTOR('',#243,1.00000000000000);
#245=LINE('',#242,#244);
#246=EDGE_CURVE('',#235,#204,#245,.T.);
#247=ORIENTED_EDGE('',*,*,#246,.T.);
#248=EDGE_LOOP('',(#225,#233,#241,#247));
#249=FACE_OUTER_BOUND('',#248,.T.);
#250=CARTESIAN_POINT('',(0.00000000000000,-0.259960336906712,0.219960336906712));
#251=DIRECTION('',(0.00000000000000,0.00000000000000,-1.00000000000000));
#252=DIRECTION('',(-1.00000000000000,0.00000000000000,0.00000000000000));
#253=AXIS2_PLACEMENT_3D('',#250,#251,#252);
#254=PLANE('',#253);
#255=ADVANCED_FACE('',(#249),#254,.T.);
#256=ORIENTED_EDGE('',*,*,#240,.F.);
#257=CARTESIAN_POINT('',(0.430002266255696,2.74003966309329,-0.220041912713676));
#258=VERTEX_POINT('',#257);
#259=CARTESIAN_POINT('',(0.437500000000000,2.74003966309329,0.219960336906711));
#260=DIRECTION('',(-0.0170377434049271,0.00000000000000,-0.999854847115154));
#261=VECTOR('',#260,1.00000000000000);
#262=LINE('',#259,#261);
#263=EDGE_CURVE('',#227,#258,#262,.T.);
#264=ORIENTED_EDGE('',*,*,#263,.T.);
#265=CARTESIAN_POINT('',(0.430002266255696,-3.25996033690671,-0.220041912713676));
#266=VERTEX_POINT('',#265);
#267=CARTESIAN_POINT('',(0.430002266255696,-0.259960336906712,-0.220041912713676));
#268=DIRECTION('',(0.00000000000000,1.00000000000000,0.00000000000000));
#269=VECTOR('',#268,1.00000000000000);
#270=LINE('',#267,#269);
#271=EDGE_CURVE('',#266,#258,#270,.T.);
#272=ORIENTED_EDGE('',*,*,#271,.F.);
#273=CARTESIAN_POINT('',(0.437500000000000,-3.25996033690671,0.219960336906711));
#274=DIRECTION('',(0.0170377434049271,0.00000000000000,0.999854847115154));
#275=VECTOR('',#274,1.00000000000000);
#276=LINE('',#273,#275);
#277=EDGE_CURVE('',#266,#235,#276,.T.);
#278=ORIENTED_EDGE('',*,*,#277,.T.);
#279=EDGE_LOOP('',(#256,#264,#272,#278));
#280=FACE_OUTER_BOUND('',#279,.T.);
#281=CARTESIAN_POINT('',(0.433751133127847,-0.259960336906712,-4.07879034822201E-05));
#282=DIRECTION('',(-0.999854847115154,0.00000000000000,0.0170377434049271));
#283=DIRECTION('',(0.0170377434049271,-0.00000000000000,0.999854847115154));
#284=AXIS2_PLACEMENT_3D('',#281,#282,#283);
#285=PLANE('',#284);
#286=ADVANCED_FACE('',(#280),#285,.T.);
#287=ORIENTED_EDGE('',*,*,#271,.T.);
#288=CARTESIAN_POINT('',(0.430000016635312,2.74003966309329,-0.220341878969371));
#289=VERTEX_POINT('',#288);
#290=CARTESIAN_POINT('',(0.450000016635312,2.74003966309329,-0.220341878969371));
#291=DIRECTION('',(0.00000000000000,-1.00000000000000,6.12323399573677E-17));
#292=DIRECTION('',(1.00000000000000,0.00000000000000,0.00000000000000));
#293=AXIS2_PLACEMENT_3D('',#290,#291,#292);
#294=CIRCLE('',#293,0.0200000000000000);
#295=EDGE_CURVE('',#258,#289,#294,.T.);
#296=ORIENTED_EDGE('',*,*,#295,.T.);
#297=CARTESIAN_POINT('',(0.430000016635312,-3.25996033690671,-0.220341878969371));
#298=VERTEX_POINT('',#297);
#299=CARTESIAN_POINT('',(0.430000016635312,-0.259960336906712,-0.220341878969371));
#300=DIRECTION('',(0.00000000000000,-1.00000000000000,0.00000000000000));
#301=VECTOR('',#300,1.00000000000000);
#302=LINE('',#299,#301);
#303=EDGE_CURVE('',#289,#298,#302,.T.);
#304=ORIENTED_EDGE('',*,*,#303,.T.);
#305=CARTESIAN_POINT('',(0.450000016635312,-3.25996033690671,-0.220341878969371));
#306=DIRECTION('',(0.00000000000000,1.00000000000000,-6.12323399573677E-17));
#307=DIRECTION('',(1.00000000000000,0.00000000000000,0.00000000000000));
#308=AXIS2_PLACEMENT_3D('',#305,#306,#307);
#309=CIRCLE('',#308,0.0200000000000000);
#310=EDGE_CURVE('',#298,#266,#309,.T.);
#311=ORIENTED_EDGE('',*,*,#310,.T.);
#312=EDGE_LOOP('',(#287,#296,#304,#311));
#313=FACE_OUTER_BOUND('',#312,.T.);
#314=CARTESIAN_POINT('',(0.450000016635312,-0.259960336906712,-0.220341878969371));
#315=DIRECTION('',(0.00000000000000,1.00000000000000,0.00000000000000));
#316=DIRECTION('',(1.00000000000000,-0.00000000000000,0.00000000000000));
#317=AXIS2_PLACEMENT_3D('',#314,#315,#316);
#318=CYLINDRICAL_SURFACE('',#317,0.0200000000000000);
#319=ADVANCED_FACE('',(#313),#318,.T.);
#320=ORIENTED_EDGE('',*,*,#303,.F.);
#321=CARTESIAN_POINT('',(0.469996460140301,2.74003966309329,-0.220723422449870));
#322=VERTEX_POINT('',#321);
#323=CARTESIAN_POINT('',(0.449999669092409,2.74003966309329,-0.220382672794279));
#324=DIRECTION('',(1.38826063701864E-15,-1.00000000000000,-6.12323399573677E-17));
#325=DIRECTION('',(1.00000000000000,1.38826063701864E-15,1.38826063701864E-15));
#326=AXIS2_PLACEMENT_3D('',#323,#324,#325);
#327=CIRCLE('',#326,0.0199996940611806);
#328=EDGE_CURVE('',#289,#322,#327,.T.);
#329=ORIENTED_EDGE('',*,*,#328,.T.);
#330=CARTESIAN_POINT('',(0.469996460140301,-3.25996033690671,-0.220723422449870));
#331=VERTEX_POINT('',#330);
#332=CARTESIAN_POINT('',(0.469996460140301,-0.259960336906712,-0.220723422449870));
#333=DIRECTION('',(0.00000000000000,-1.00000000000000,0.00000000000000));
#334=VECTOR('',#333,1.00000000000000);
#335=LINE('',#332,#334);
#336=EDGE_CURVE('',#322,#331,#335,.T.);
#337=ORIENTED_EDGE('',*,*,#336,.T.);
#338=CARTESIAN_POINT('',(0.449999669092409,-3.25996033690671,-0.220382672794279));
#339=DIRECTION('',(-1.38826063701864E-15,1.00000000000000,6.12323399573677E-17));
#340=DIRECTION('',(1.00000000000000,1.38826063701864E-15,1.38826063701864E-15));
#341=AXIS2_PLACEMENT_3D('',#338,#339,#340);
#342=CIRCLE('',#341,0.0199996940611806);
#343=EDGE_CURVE('',#331,#298,#342,.T.);
#344=ORIENTED_EDGE('',*,*,#343,.T.);
#345=EDGE_LOOP('',(#320,#329,#337,#344));
#346=FACE_OUTER_BOUND('',#345,.T.);
#347=CARTESIAN_POINT('',(0.449999669092409,-0.259960336906712,-0.220382672794279));
#348=DIRECTION('',(0.00000000000000,1.00000000000000,0.00000000000000));
#349=DIRECTION('',(1.00000000000000,-0.00000000000000,1.38826063701864E-15));
#350=AXIS2_PLACEMENT_3D('',#347,#348,#349);
#351=CYLINDRICAL_SURFACE('',#350,0.0199996940611806);
#352=ADVANCED_FACE('',(#346),#351,.T.);
#353=ORIENTED_EDGE('',*,*,#336,.F.);
#354=CARTESIAN_POINT('',(0.477494193884606,2.74003966309329,0.219278827170514));
#355=DIRECTION('',(0.0170377434049272,0.00000000000000,0.999854847115154));
#356=VECTOR('',#355,1.00000000000000);
#357=LINE('',#354,#356);
#358=EDGE_CURVE('',#322,#27,#357,.T.);
#359=ORIENTED_EDGE('',*,*,#358,.T.);
#360=ORIENTED_EDGE('',*,*,#32,.F.);
#361=CARTESIAN_POINT('',(0.477494193884606,-3.25996033690671,0.219278827170514));
#362=DIRECTION('',(-0.0170377434049272,0.00000000000000,-0.999854847115154));
#363=VECTOR('',#362,1.00000000000000);
#364=LINE('',#361,#363);
#365=EDGE_CURVE('',#25,#331,#364,.T.);
#366=ORIENTED_EDGE('',*,*,#365,.T.);
#367=EDGE_LOOP('',(#353,#359,#360,#366));
#368=FACE_OUTER_BOUND('',#367,.T.);
#369=CARTESIAN_POINT('',(0.473745327012453,-0.259960336906712,-0.000722297639678765));
#370=DIRECTION('',(0.999854847115154,0.00000000000000,-0.0170377434049272));
#371=DIRECTION('',(-0.0170377434049272,0.00000000000000,-0.999854847115154));
#372=AXIS2_PLACEMENT_3D('',#369,#370,#371);
#373=PLANE('',#372);
#374=ADVANCED_FACE('',(#368),#373,.T.);
#375=ORIENTED_EDGE('',*,*,#73,.F.);
#376=ORIENTED_EDGE('',*,*,#41,.F.);
#377=ORIENTED_EDGE('',*,*,#358,.F.);
#378=ORIENTED_EDGE('',*,*,#328,.F.);
#379=ORIENTED_EDGE('',*,*,#295,.F.);
#380=ORIENTED_EDGE('',*,*,#263,.F.);
#381=ORIENTED_EDGE('',*,*,#232,.F.);
#382=ORIENTED_EDGE('',*,*,#201,.F.);
#383=ORIENTED_EDGE('',*,*,#169,.F.);
#384=ORIENTED_EDGE('',*,*,#137,.F.);
#385=ORIENTED_EDGE('',*,*,#105,.F.);
#386=EDGE_LOOP('',(#375,#376,#377,#378,#379,#380,#381,#382,#383,#384,#385));
#387=FACE_OUTER_BOUND('',#386,.T.);
#388=CARTESIAN_POINT('',(0.475152464192916,2.74003966309329,0.0818551245578265));
#389=DIRECTION('',(0.00000000000000,1.00000000000000,0.00000000000000));
#390=DIRECTION('',(-1.00000000000000,0.00000000000000,0.00000000000000));
#391=AXIS2_PLACEMENT_3D('',#388,#389,#390);
#392=PLANE('',#391);
#393=ADVANCED_FACE('',(#387),#392,.T.);
#394=ORIENTED_EDGE('',*,*,#310,.F.);
#395=ORIENTED_EDGE('',*,*,#343,.F.);
#396=ORIENTED_EDGE('',*,*,#365,.F.);
#397=ORIENTED_EDGE('',*,*,#56,.F.);
#398=ORIENTED_EDGE('',*,*,#87,.F.);
#399=ORIENTED_EDGE('',*,*,#120,.F.);
#400=ORIENTED_EDGE('',*,*,#151,.F.);
#401=ORIENTED_EDGE('',*,*,#184,.F.);
#402=ORIENTED_EDGE('',*,*,#215,.F.);
#403=ORIENTED_EDGE('',*,*,#246,.F.);
#404=ORIENTED_EDGE('',*,*,#277,.F.);
#405=EDGE_LOOP('',(#394,#395,#396,#397,#398,#399,#400,#401,#402,#403,#404));
#406=FACE_OUTER_BOUND('',#405,.T.);
#407=CARTESIAN_POINT('',(0.475152464192916,-3.25996033690671,0.0818551245578265));
#408=DIRECTION('',(0.00000000000000,1.00000000000000,0.00000000000000));
#409=DIRECTION('',(-1.00000000000000,0.00000000000000,0.00000000000000));
#410=AXIS2_PLACEMENT_3D('',#407,#408,#409);
#411=PLANE('',#410);
#412=ADVANCED_FACE('',(#406),#411,.F.);
#413=CLOSED_SHELL('',(#65,#96,#129,#160,#193,#224,#255,#286,#319,#352,#374,#393,#412));
#414=MANIFOLD_SOLID_BREP('',#413);
#415=COLOUR_RGB('',1.00000000000000,0.00000000000000,0.00000000000000);
#416=FILL_AREA_STYLE_COLOUR('',#415);
#417=FILL_AREA_STYLE('',(#416));
#418=SURFACE_STYLE_FILL_AREA(#417);
#419=SURFACE_SIDE_STYLE('',(#418));
#420=SURFACE_STYLE_USAGE(.BOTH.,#419);
#421=PRESENTATION_STYLE_ASSIGNMENT((#420));
#422=STYLED_ITEM('',(#421),#414);
#423=ADVANCED_BREP_SHAPE_REPRESENTATION('',(#414,#23),#18);
#424=PRODUCT('','','',(#2));
#425=PRODUCT_DEFINITION_FORMATION_WITH_SPECIFIED_SOURCE('','',#424,.NOT_KNOWN.);
#426=PRODUCT_CATEGORY('part','');
#427=PRODUCT_RELATED_PRODUCT_CATEGORY('detail','',(#424));
#428=PRODUCT_CATEGORY_RELATIONSHIP('','',#426,#427);
#429=PRODUCT_DEFINITION('','',#425,#1);
#430=PRODUCT_DEFINITION_SHAPE('NONE','NONE',#429);
#431=SHAPE_DEFINITION_REPRESENTATION(#430,#423);
#432=PRESENTATION_LAYER_ASSIGNMENT('1','Unnamed [1]',(#414));
ENDSEC;
END-ISO-10303-21;
