ISO-10303-21;
HEADER;
FILE_DESCRIPTION((''),'2;1');
FILE_NAME('C:/Program Files/Kubotek/KeyCreatorPro.2021.SP0/STEP/SG2321.STP', '2021-02-02T21:36:42',(''), (''), 'KCM Version 2.0.6974.6974', 'KeyCreator Pro', '');
FILE_SCHEMA(('AUTOMOTIVE_DESIGN'));
ENDSEC;
DATA;
#1=PRODUCT_DEFINITION_CONTEXT('',#4,'design');
#2=PRODUCT_CONTEXT('',#4,'mechanical');
#3=APPLICATION_PROTOCOL_DEFINITION('International Standard','automotive_design',2001,#4);
#4=APPLICATION_CONTEXT('automotive design');
#10=DIMENSIONAL_EXPONENTS(1.0,0.0,0.0,0.0,0.0,0.0,0.0);
#11=DIMENSIONAL_EXPONENTS(0.0,0.0,0.0,0.0,0.0,0.0,0.0);
#12=(NAMED_UNIT(#10)LENGTH_UNIT()SI_UNIT(.MILLI.,.METRE.));
#13=(NAMED_UNIT(#11)PLANE_ANGLE_UNIT()SI_UNIT($,.RADIAN.));
#14=(NAMED_UNIT(#11)SOLID_ANGLE_UNIT()SI_UNIT($,.STERADIAN.));
#15=LENGTH_MEASURE_WITH_UNIT(LENGTH_MEASURE(25.4),#12);
#16= (CONVERSION_BASED_UNIT('INCH',#15)LENGTH_UNIT()NAMED_UNIT(#10));
#17=UNCERTAINTY_MEASURE_WITH_UNIT(LENGTH_MEASURE(1.0E-006),#16,'','');
#18=(GEOMETRIC_REPRESENTATION_CONTEXT(3)GLOBAL_UNCERTAINTY_ASSIGNED_CONTEXT((#17))GLOBAL_UNIT_ASSIGNED_CONTEXT((#16,#13,#14))REPRESENTATION_CONTEXT('NONE','WORKSPACE'));
#20=CARTESIAN_POINT('',(0.00000000000000,0.00000000000000,0.00000000000000));
#21=DIRECTION('',(0.00000000000000,0.00000000000000,1.00000000000000));
#22=DIRECTION('',(1.00000000000000,0.00000000000000,0.00000000000000));
#23=AXIS2_PLACEMENT_3D('',#20,#21,#22);
#24=CARTESIAN_POINT('',(-0.135000000000000,5.49550458680389,0.579495413196105));
#25=VERTEX_POINT('',#24);
#26=CARTESIAN_POINT('',(-0.209670896622188,5.49550458680389,0.497477065980524));
#27=VERTEX_POINT('',#26);
#28=CARTESIAN_POINT('',(-0.135000000000000,5.49550458680389,0.504495413196105));
#29=DIRECTION('',(-0.00000000000000,-1.00000000000000,-0.00000000000000));
#30=DIRECTION('',(-1.00000000000000,0.00000000000000,0.00000000000000));
#31=AXIS2_PLACEMENT_3D('',#28,#29,#30);
#32=CIRCLE('',#31,0.0750000000000000);
#33=EDGE_CURVE('',#25,#27,#32,.T.);
#34=ORIENTED_EDGE('',*,*,#33,.T.);
#35=CARTESIAN_POINT('',(-0.209670896622188,-0.504495413196105,0.497477065980524));
#36=VERTEX_POINT('',#35);
#37=CARTESIAN_POINT('',(-0.209670896622188,-0.504495413196105,0.497477065980524));
#38=DIRECTION('',(0.00000000000000,1.00000000000000,0.00000000000000));
#39=VECTOR('',#38,1.00000000000000);
#40=LINE('',#37,#39);
#41=EDGE_CURVE('',#36,#27,#40,.T.);
#42=ORIENTED_EDGE('',*,*,#41,.F.);
#43=CARTESIAN_POINT('',(-0.135000000000000,-0.504495413196105,0.579495413196105));
#44=VERTEX_POINT('',#43);
#45=CARTESIAN_POINT('',(-0.135000000000000,-0.504495413196105,0.504495413196105));
#46=DIRECTION('',(0.00000000000000,1.00000000000000,0.00000000000000));
#47=DIRECTION('',(-1.00000000000000,0.00000000000000,0.00000000000000));
#48=AXIS2_PLACEMENT_3D('',#45,#46,#47);
#49=CIRCLE('',#48,0.0750000000000000);
#50=EDGE_CURVE('',#36,#44,#49,.T.);
#51=ORIENTED_EDGE('',*,*,#50,.T.);
#52=CARTESIAN_POINT('',(-0.135000000000000,-0.504495413196105,0.579495413196105));
#53=DIRECTION('',(0.00000000000000,1.00000000000000,0.00000000000000));
#54=VECTOR('',#53,1.00000000000000);
#55=LINE('',#52,#54);
#56=EDGE_CURVE('',#44,#25,#55,.T.);
#57=ORIENTED_EDGE('',*,*,#56,.T.);
#58=EDGE_LOOP('',(#34,#42,#51,#57));
#59=FACE_OUTER_BOUND('',#58,.T.);
#60=CARTESIAN_POINT('',(-0.135000000000000,-0.504495413196105,0.504495413196105));
#61=DIRECTION('',(0.00000000000000,1.00000000000000,0.00000000000000));
#62=DIRECTION('',(0.739451811436829,0.00000000000000,-0.673209490844264));
#63=AXIS2_PLACEMENT_3D('',#60,#61,#62);
#64=CYLINDRICAL_SURFACE('',#63,0.0750000000000000);
#65=ADVANCED_FACE('',(#59),#64,.T.);
#66=CARTESIAN_POINT('',(-0.114835448311094,5.49550458680389,-0.511513760411686));
#67=VERTEX_POINT('',#66);
#68=CARTESIAN_POINT('',(-0.114835448311094,5.49550458680389,-0.511513760411686));
#69=DIRECTION('',(0.0935779628744143,-1.09550184905425E-16,-0.995611954962512));
#70=VECTOR('',#69,1.00000000000000);
#71=LINE('',#68,#70);
#72=EDGE_CURVE('',#27,#67,#71,.T.);
#73=ORIENTED_EDGE('',*,*,#72,.T.);
#74=CARTESIAN_POINT('',(-0.114835448311094,-0.504495413196105,-0.511513760411686));
#75=VERTEX_POINT('',#74);
#76=CARTESIAN_POINT('',(-0.114835448311094,-0.504495413196105,-0.511513760411686));
#77=DIRECTION('',(0.00000000000000,1.00000000000000,0.00000000000000));
#78=VECTOR('',#77,1.00000000000000);
#79=LINE('',#76,#78);
#80=EDGE_CURVE('',#75,#67,#79,.T.);
#81=ORIENTED_EDGE('',*,*,#80,.F.);
#82=CARTESIAN_POINT('',(-0.114835448311094,-0.504495413196105,-0.511513760411686));
#83=DIRECTION('',(-0.0935779628744143,1.09550184905425E-16,0.995611954962512));
#84=VECTOR('',#83,1.00000000000000);
#85=LINE('',#82,#84);
#86=EDGE_CURVE('',#75,#36,#85,.T.);
#87=ORIENTED_EDGE('',*,*,#86,.T.);
#88=ORIENTED_EDGE('',*,*,#41,.T.);
#89=EDGE_LOOP('',(#73,#81,#87,#88));
#90=FACE_OUTER_BOUND('',#89,.T.);
#91=CARTESIAN_POINT('',(-0.162253172466641,-0.504495413196105,-0.00701834721558126));
#92=DIRECTION('',(-0.995611954962512,0.00000000000000,-0.0935779628744143));
#93=DIRECTION('',(-0.0935779628744143,1.09550184905425E-16,0.995611954962512));
#94=AXIS2_PLACEMENT_3D('',#91,#92,#93);
#95=PLANE('',#94);
#96=ADVANCED_FACE('',(#90),#95,.T.);
#97=CARTESIAN_POINT('',(-0.0401645516889055,5.49550458680389,-0.504495413196105));
#98=VERTEX_POINT('',#97);
#99=CARTESIAN_POINT('',(-0.0774999999999997,5.49550458680389,-0.508004586803895));
#100=DIRECTION('',(0.00000000000000,-1.00000000000000,6.12323399573677E-17));
#101=DIRECTION('',(1.00000000000000,0.00000000000000,0.00000000000000));
#102=AXIS2_PLACEMENT_3D('',#99,#100,#101);
#103=CIRCLE('',#102,0.0375000000000000);
#104=EDGE_CURVE('',#67,#98,#103,.T.);
#105=ORIENTED_EDGE('',*,*,#104,.T.);
#106=CARTESIAN_POINT('',(-0.0401645516889055,-0.504495413196105,-0.504495413196105));
#107=VERTEX_POINT('',#106);
#108=CARTESIAN_POINT('',(-0.0401645516889055,-0.504495413196105,-0.504495413196105));
#109=DIRECTION('',(0.00000000000000,1.00000000000000,0.00000000000000));
#110=VECTOR('',#109,1.00000000000000);
#111=LINE('',#108,#110);
#112=EDGE_CURVE('',#107,#98,#111,.T.);
#113=ORIENTED_EDGE('',*,*,#112,.F.);
#114=CARTESIAN_POINT('',(-0.0774999999999997,-0.504495413196105,-0.508004586803895));
#115=DIRECTION('',(0.00000000000000,-1.00000000000000,6.12323399573677E-17));
#116=DIRECTION('',(1.00000000000000,0.00000000000000,0.00000000000000));
#117=AXIS2_PLACEMENT_3D('',#114,#115,#116);
#118=CIRCLE('',#117,0.0375000000000000);
#119=EDGE_CURVE('',#75,#107,#118,.T.);
#120=ORIENTED_EDGE('',*,*,#119,.F.);
#121=ORIENTED_EDGE('',*,*,#80,.T.);
#122=EDGE_LOOP('',(#105,#113,#120,#121));
#123=FACE_OUTER_BOUND('',#122,.T.);
#124=CARTESIAN_POINT('',(-0.0774999999999997,-0.504495413196105,-0.508004586803895));
#125=DIRECTION('',(0.00000000000000,1.00000000000000,0.00000000000000));
#126=DIRECTION('',(-0.0935779628744134,0.00000000000000,0.995611954962512));
#127=AXIS2_PLACEMENT_3D('',#124,#125,#126);
#128=CYLINDRICAL_SURFACE('',#127,0.0375000000000000);
#129=ADVANCED_FACE('',(#123),#128,.T.);
#130=CARTESIAN_POINT('',(-0.135000000000000,5.49550458680389,0.504495413196105));
#131=VERTEX_POINT('',#130);
#132=CARTESIAN_POINT('',(-0.0401645516889055,5.49550458680389,-0.504495413196105));
#133=DIRECTION('',(-0.0935779628744142,1.09550184905425E-16,0.995611954962512));
#134=VECTOR('',#133,1.00000000000000);
#135=LINE('',#132,#134);
#136=EDGE_CURVE('',#98,#131,#135,.T.);
#137=ORIENTED_EDGE('',*,*,#136,.T.);
#138=CARTESIAN_POINT('',(-0.135000000000000,-0.504495413196105,0.504495413196105));
#139=VERTEX_POINT('',#138);
#140=CARTESIAN_POINT('',(-0.135000000000000,-0.504495413196105,0.504495413196105));
#141=DIRECTION('',(0.00000000000000,1.00000000000000,0.00000000000000));
#142=VECTOR('',#141,1.00000000000000);
#143=LINE('',#140,#142);
#144=EDGE_CURVE('',#139,#131,#143,.T.);
#145=ORIENTED_EDGE('',*,*,#144,.F.);
#146=CARTESIAN_POINT('',(-0.0401645516889055,-0.504495413196105,-0.504495413196105));
#147=DIRECTION('',(-0.0935779628744142,1.09550184905425E-16,0.995611954962512));
#148=VECTOR('',#147,1.00000000000000);
#149=LINE('',#146,#148);
#150=EDGE_CURVE('',#107,#139,#149,.T.);
#151=ORIENTED_EDGE('',*,*,#150,.F.);
#152=ORIENTED_EDGE('',*,*,#112,.T.);
#153=EDGE_LOOP('',(#137,#145,#151,#152));
#154=FACE_OUTER_BOUND('',#153,.T.);
#155=CARTESIAN_POINT('',(-0.0875822758444527,-0.504495413196105,1.11022302462516E-16));
#156=DIRECTION('',(0.995611954962512,-0.00000000000000,0.0935779628744142));
#157=DIRECTION('',(0.0935779628744142,-1.09550184905425E-16,-0.995611954962512));
#158=AXIS2_PLACEMENT_3D('',#155,#156,#157);
#159=PLANE('',#158);
#160=ADVANCED_FACE('',(#154),#159,.T.);
#161=CARTESIAN_POINT('',(0.135000000000000,5.49550458680389,0.504495413196105));
#162=VERTEX_POINT('',#161);
#163=CARTESIAN_POINT('',(0.135000000000000,5.49550458680389,0.504495413196105));
#164=DIRECTION('',(1.00000000000000,0.00000000000000,0.00000000000000));
#165=VECTOR('',#164,1.00000000000000);
#166=LINE('',#163,#165);
#167=EDGE_CURVE('',#131,#162,#166,.T.);
#168=ORIENTED_EDGE('',*,*,#167,.T.);
#169=CARTESIAN_POINT('',(0.135000000000000,-0.504495413196105,0.504495413196105));
#170=VERTEX_POINT('',#169);
#171=CARTESIAN_POINT('',(0.135000000000000,-0.504495413196105,0.504495413196105));
#172=DIRECTION('',(0.00000000000000,1.00000000000000,0.00000000000000));
#173=VECTOR('',#172,1.00000000000000);
#174=LINE('',#171,#173);
#175=EDGE_CURVE('',#170,#162,#174,.T.);
#176=ORIENTED_EDGE('',*,*,#175,.F.);
#177=CARTESIAN_POINT('',(0.135000000000000,-0.504495413196105,0.504495413196105));
#178=DIRECTION('',(-1.00000000000000,0.00000000000000,0.00000000000000));
#179=VECTOR('',#178,1.00000000000000);
#180=LINE('',#177,#179);
#181=EDGE_CURVE('',#170,#139,#180,.T.);
#182=ORIENTED_EDGE('',*,*,#181,.T.);
#183=ORIENTED_EDGE('',*,*,#144,.T.);
#184=EDGE_LOOP('',(#168,#176,#182,#183));
#185=FACE_OUTER_BOUND('',#184,.T.);
#186=CARTESIAN_POINT('',(2.22044604925031E-16,-0.504495413196105,0.504495413196105));
#187=DIRECTION('',(0.00000000000000,0.00000000000000,-1.00000000000000));
#188=DIRECTION('',(-1.00000000000000,0.00000000000000,0.00000000000000));
#189=AXIS2_PLACEMENT_3D('',#186,#187,#188);
#190=PLANE('',#189);
#191=ADVANCED_FACE('',(#185),#190,.T.);
#192=CARTESIAN_POINT('',(0.0402550925580793,5.49550458680389,-0.303638024123394));
#193=VERTEX_POINT('',#192);
#194=CARTESIAN_POINT('',(0.0402550925580793,5.49550458680389,-0.303638024123394));
#195=DIRECTION('',(-0.116441671480137,-1.36446620925070E-16,-0.993197531784545));
#196=VECTOR('',#195,1.00000000000000);
#197=LINE('',#194,#196);
#198=EDGE_CURVE('',#162,#193,#197,.T.);
#199=ORIENTED_EDGE('',*,*,#198,.T.);
#200=CARTESIAN_POINT('',(0.0402550925580793,-0.504495413196105,-0.303638024123394));
#201=VERTEX_POINT('',#200);
#202=CARTESIAN_POINT('',(0.0402550925580793,-0.504495413196105,-0.303638024123394));
#203=DIRECTION('',(0.00000000000000,1.00000000000000,0.00000000000000));
#204=VECTOR('',#203,1.00000000000000);
#205=LINE('',#202,#204);
#206=EDGE_CURVE('',#201,#193,#205,.T.);
#207=ORIENTED_EDGE('',*,*,#206,.F.);
#208=CARTESIAN_POINT('',(0.0402550925580793,-0.504495413196105,-0.303638024123394));
#209=DIRECTION('',(0.116441671480137,1.36446620925070E-16,0.993197531784545));
#210=VECTOR('',#209,1.00000000000000);
#211=LINE('',#208,#210);
#212=EDGE_CURVE('',#201,#170,#211,.T.);
#213=ORIENTED_EDGE('',*,*,#212,.T.);
#214=ORIENTED_EDGE('',*,*,#175,.T.);
#215=EDGE_LOOP('',(#199,#207,#213,#214));
#216=FACE_OUTER_BOUND('',#215,.T.);
#217=CARTESIAN_POINT('',(0.0876275462790398,-0.504495413196105,0.100428694536355));
#218=DIRECTION('',(-0.993197531784545,0.00000000000000,0.116441671480137));
#219=DIRECTION('',(0.116441671480137,1.36446620925070E-16,0.993197531784545));
#220=AXIS2_PLACEMENT_3D('',#217,#218,#219);
#221=PLANE('',#220);
#222=ADVANCED_FACE('',(#216),#221,.T.);
#223=CARTESIAN_POINT('',(0.114744907441920,5.49550458680389,-0.312371149484405));
#224=VERTEX_POINT('',#223);
#225=CARTESIAN_POINT('',(0.0775000000000006,5.49550458680389,-0.308004586803895));
#226=DIRECTION('',(0.00000000000000,-1.00000000000000,6.12323399573677E-17));
#227=DIRECTION('',(1.00000000000000,0.00000000000000,0.00000000000000));
#228=AXIS2_PLACEMENT_3D('',#225,#226,#227);
#229=CIRCLE('',#228,0.0375000000000000);
#230=EDGE_CURVE('',#193,#224,#229,.T.);
#231=ORIENTED_EDGE('',*,*,#230,.T.);
#232=CARTESIAN_POINT('',(0.114744907441920,-0.504495413196105,-0.312371149484405));
#233=VERTEX_POINT('',#232);
#234=CARTESIAN_POINT('',(0.114744907441920,-0.504495413196105,-0.312371149484405));
#235=DIRECTION('',(0.00000000000000,1.00000000000000,0.00000000000000));
#236=VECTOR('',#235,1.00000000000000);
#237=LINE('',#234,#236);
#238=EDGE_CURVE('',#233,#224,#237,.T.);
#239=ORIENTED_EDGE('',*,*,#238,.F.);
#240=CARTESIAN_POINT('',(0.0775000000000006,-0.504495413196105,-0.308004586803895));
#241=DIRECTION('',(0.00000000000000,-1.00000000000000,6.12323399573677E-17));
#242=DIRECTION('',(1.00000000000000,0.00000000000000,0.00000000000000));
#243=AXIS2_PLACEMENT_3D('',#240,#241,#242);
#244=CIRCLE('',#243,0.0375000000000000);
#245=EDGE_CURVE('',#201,#233,#244,.T.);
#246=ORIENTED_EDGE('',*,*,#245,.F.);
#247=ORIENTED_EDGE('',*,*,#206,.T.);
#248=EDGE_LOOP('',(#231,#239,#246,#247));
#249=FACE_OUTER_BOUND('',#248,.T.);
#250=CARTESIAN_POINT('',(0.0775000000000006,-0.504495413196105,-0.308004586803895));
#251=DIRECTION('',(0.00000000000000,1.00000000000000,0.00000000000000));
#252=DIRECTION('',(1.00000000000000,-0.00000000000000,0.00000000000000));
#253=AXIS2_PLACEMENT_3D('',#250,#251,#252);
#254=CYLINDRICAL_SURFACE('',#253,0.0375000000000000);
#255=ADVANCED_FACE('',(#249),#254,.T.);
#256=CARTESIAN_POINT('',(0.209489814883841,5.49550458680389,0.495762287835095));
#257=VERTEX_POINT('',#256);
#258=CARTESIAN_POINT('',(0.114744907441920,5.49550458680389,-0.312371149484405));
#259=DIRECTION('',(0.116441671480137,1.36446620925070E-16,0.993197531784545));
#260=VECTOR('',#259,1.00000000000000);
#261=LINE('',#258,#260);
#262=EDGE_CURVE('',#224,#257,#261,.T.);
#263=ORIENTED_EDGE('',*,*,#262,.T.);
#264=CARTESIAN_POINT('',(0.209489814883841,-0.504495413196105,0.495762287835095));
#265=VERTEX_POINT('',#264);
#266=CARTESIAN_POINT('',(0.209489814883841,-0.504495413196105,0.495762287835095));
#267=DIRECTION('',(0.00000000000000,1.00000000000000,0.00000000000000));
#268=VECTOR('',#267,1.00000000000000);
#269=LINE('',#266,#268);
#270=EDGE_CURVE('',#265,#257,#269,.T.);
#271=ORIENTED_EDGE('',*,*,#270,.F.);
#272=CARTESIAN_POINT('',(0.114744907441920,-0.504495413196105,-0.312371149484405));
#273=DIRECTION('',(0.116441671480137,1.36446620925070E-16,0.993197531784545));
#274=VECTOR('',#273,1.00000000000000);
#275=LINE('',#272,#274);
#276=EDGE_CURVE('',#233,#265,#275,.T.);
#277=ORIENTED_EDGE('',*,*,#276,.F.);
#278=ORIENTED_EDGE('',*,*,#238,.T.);
#279=EDGE_LOOP('',(#263,#271,#277,#278));
#280=FACE_OUTER_BOUND('',#279,.T.);
#281=CARTESIAN_POINT('',(0.162117361162881,-0.504495413196105,0.0916955691753452));
#282=DIRECTION('',(0.993197531784545,0.00000000000000,-0.116441671480137));
#283=DIRECTION('',(-0.116441671480137,-1.36446620925070E-16,-0.993197531784545));
#284=AXIS2_PLACEMENT_3D('',#281,#282,#283);
#285=PLANE('',#284);
#286=ADVANCED_FACE('',(#280),#285,.T.);
#287=CARTESIAN_POINT('',(0.135000000000000,5.49550458680389,0.579495413196105));
#288=VERTEX_POINT('',#287);
#289=CARTESIAN_POINT('',(0.135000000000001,5.49550458680389,0.504495413196105));
#290=DIRECTION('',(-0.00000000000000,-1.00000000000000,-0.00000000000000));
#291=DIRECTION('',(-1.00000000000000,0.00000000000000,0.00000000000000));
#292=AXIS2_PLACEMENT_3D('',#289,#290,#291);
#293=CIRCLE('',#292,0.0750000000000000);
#294=EDGE_CURVE('',#257,#288,#293,.T.);
#295=ORIENTED_EDGE('',*,*,#294,.T.);
#296=CARTESIAN_POINT('',(0.135000000000000,-0.504495413196105,0.579495413196105));
#297=VERTEX_POINT('',#296);
#298=CARTESIAN_POINT('',(0.135000000000000,-0.504495413196105,0.579495413196105));
#299=DIRECTION('',(0.00000000000000,1.00000000000000,0.00000000000000));
#300=VECTOR('',#299,1.00000000000000);
#301=LINE('',#298,#300);
#302=EDGE_CURVE('',#297,#288,#301,.T.);
#303=ORIENTED_EDGE('',*,*,#302,.F.);
#304=CARTESIAN_POINT('',(0.135000000000001,-0.504495413196105,0.504495413196105));
#305=DIRECTION('',(0.00000000000000,1.00000000000000,0.00000000000000));
#306=DIRECTION('',(-1.00000000000000,0.00000000000000,0.00000000000000));
#307=AXIS2_PLACEMENT_3D('',#304,#305,#306);
#308=CIRCLE('',#307,0.0750000000000000);
#309=EDGE_CURVE('',#297,#265,#308,.T.);
#310=ORIENTED_EDGE('',*,*,#309,.T.);
#311=ORIENTED_EDGE('',*,*,#270,.T.);
#312=EDGE_LOOP('',(#295,#303,#310,#311));
#313=FACE_OUTER_BOUND('',#312,.T.);
#314=CARTESIAN_POINT('',(0.135000000000001,-0.504495413196105,0.504495413196105));
#315=DIRECTION('',(0.00000000000000,1.00000000000000,0.00000000000000));
#316=DIRECTION('',(-1.00000000000000,0.00000000000000,0.00000000000000));
#317=AXIS2_PLACEMENT_3D('',#314,#315,#316);
#318=CYLINDRICAL_SURFACE('',#317,0.0750000000000000);
#319=ADVANCED_FACE('',(#313),#318,.T.);
#320=CARTESIAN_POINT('',(0.135000000000000,5.49550458680389,0.579495413196105));
#321=DIRECTION('',(-1.00000000000000,0.00000000000000,0.00000000000000));
#322=VECTOR('',#321,1.00000000000000);
#323=LINE('',#320,#322);
#324=EDGE_CURVE('',#288,#25,#323,.T.);
#325=ORIENTED_EDGE('',*,*,#324,.T.);
#326=ORIENTED_EDGE('',*,*,#56,.F.);
#327=CARTESIAN_POINT('',(0.135000000000000,-0.504495413196105,0.579495413196105));
#328=DIRECTION('',(-1.00000000000000,0.00000000000000,0.00000000000000));
#329=VECTOR('',#328,1.00000000000000);
#330=LINE('',#327,#329);
#331=EDGE_CURVE('',#297,#44,#330,.T.);
#332=ORIENTED_EDGE('',*,*,#331,.F.);
#333=ORIENTED_EDGE('',*,*,#302,.T.);
#334=EDGE_LOOP('',(#325,#326,#332,#333));
#335=FACE_OUTER_BOUND('',#334,.T.);
#336=CARTESIAN_POINT('',(2.49800180540660E-16,-0.504495413196105,0.579495413196105));
#337=DIRECTION('',(0.00000000000000,-0.00000000000000,1.00000000000000));
#338=DIRECTION('',(1.00000000000000,-0.00000000000000,-0.00000000000000));
#339=AXIS2_PLACEMENT_3D('',#336,#337,#338);
#340=PLANE('',#339);
#341=ADVANCED_FACE('',(#335),#340,.T.);
#342=ORIENTED_EDGE('',*,*,#33,.F.);
#343=ORIENTED_EDGE('',*,*,#324,.F.);
#344=ORIENTED_EDGE('',*,*,#294,.F.);
#345=ORIENTED_EDGE('',*,*,#262,.F.);
#346=ORIENTED_EDGE('',*,*,#230,.F.);
#347=ORIENTED_EDGE('',*,*,#198,.F.);
#348=ORIENTED_EDGE('',*,*,#167,.F.);
#349=ORIENTED_EDGE('',*,*,#136,.F.);
#350=ORIENTED_EDGE('',*,*,#104,.F.);
#351=ORIENTED_EDGE('',*,*,#72,.F.);
#352=EDGE_LOOP('',(#342,#343,#344,#345,#346,#347,#348,#349,#350,#351));
#353=FACE_OUTER_BOUND('',#352,.T.);
#354=CARTESIAN_POINT('',(0.0506722500000003,5.49550458680389,0.579495413196105));
#355=DIRECTION('',(0.00000000000000,1.00000000000000,0.00000000000000));
#356=DIRECTION('',(-1.00000000000000,0.00000000000000,0.00000000000000));
#357=AXIS2_PLACEMENT_3D('',#354,#355,#356);
#358=PLANE('',#357);
#359=ADVANCED_FACE('',(#353),#358,.T.);
#360=ORIENTED_EDGE('',*,*,#331,.T.);
#361=ORIENTED_EDGE('',*,*,#50,.F.);
#362=ORIENTED_EDGE('',*,*,#86,.F.);
#363=ORIENTED_EDGE('',*,*,#119,.T.);
#364=ORIENTED_EDGE('',*,*,#150,.T.);
#365=ORIENTED_EDGE('',*,*,#181,.F.);
#366=ORIENTED_EDGE('',*,*,#212,.F.);
#367=ORIENTED_EDGE('',*,*,#245,.T.);
#368=ORIENTED_EDGE('',*,*,#276,.T.);
#369=ORIENTED_EDGE('',*,*,#309,.F.);
#370=EDGE_LOOP('',(#360,#361,#362,#363,#364,#365,#366,#367,#368,#369));
#371=FACE_OUTER_BOUND('',#370,.T.);
#372=CARTESIAN_POINT('',(0.0506722500000003,-0.504495413196105,0.579495413196105));
#373=DIRECTION('',(0.00000000000000,1.00000000000000,-0.00000000000000));
#374=DIRECTION('',(-1.00000000000000,0.00000000000000,0.00000000000000));
#375=AXIS2_PLACEMENT_3D('',#372,#373,#374);
#376=PLANE('',#375);
#377=ADVANCED_FACE('',(#371),#376,.F.);
#378=CLOSED_SHELL('',(#65,#96,#129,#160,#191,#222,#255,#286,#319,#341,#359,#377));
#379=MANIFOLD_SOLID_BREP('',#378);
#380=COLOUR_RGB('',1.00000000000000,0.00000000000000,0.00000000000000);
#381=FILL_AREA_STYLE_COLOUR('',#380);
#382=FILL_AREA_STYLE('',(#381));
#383=SURFACE_STYLE_FILL_AREA(#382);
#384=SURFACE_SIDE_STYLE('',(#383));
#385=SURFACE_STYLE_USAGE(.BOTH.,#384);
#386=PRESENTATION_STYLE_ASSIGNMENT((#385));
#387=STYLED_ITEM('',(#386),#379);
#388=ADVANCED_BREP_SHAPE_REPRESENTATION('',(#379,#23),#18);
#389=PRODUCT('', '', ' ',(#2));
#390=PRODUCT_DEFINITION_FORMATION_WITH_SPECIFIED_SOURCE (' ', ' ', #389, .NOT_KNOWN.) ;
#391=PRODUCT_CATEGORY('part','') ;
#392=PRODUCT_RELATED_PRODUCT_CATEGORY('detail', ' ', (#389)) ;
#393=PRODUCT_CATEGORY_RELATIONSHIP(' ', ' ', #391, #392);
#394=PRODUCT_DEFINITION('', '', #390, #1);
#395=PRODUCT_DEFINITION_SHAPE('NONE', 'NONE', #394);
#396=SHAPE_DEFINITION_REPRESENTATION(#395, #388);
#397=PRESENTATION_LAYER_ASSIGNMENT('1','Unnamed [1]',(#379));
#398=MECHANICAL_DESIGN_GEOMETRIC_PRESENTATION_REPRESENTATION('',(#387), #18);
ENDSEC;
END-ISO-10303-21;
