ISO-10303-21;
HEADER;
FILE_DESCRIPTION((''),'2;1');
FILE_NAME('C:/Program Files/Kubotek/KeyCreatorPro.2021.SP0/STEP/SG2307.STP', '2021-02-25T13:03:20',(''), (''), 'KCM Version 2.0.6974.6974', 'KeyCreator Pro', '');
FILE_SCHEMA(('AUTOMOTIVE_DESIGN'));
ENDSEC;
DATA;
#1=PRODUCT_DEFINITION_CONTEXT('',#4,'design');
#2=PRODUCT_CONTEXT('',#4,'mechanical');
#3=APPLICATION_PROTOCOL_DEFINITION('International Standard','automotive_design',2001,#4);
#4=APPLICATION_CONTEXT('automotive design');
#10=DIMENSIONAL_EXPONENTS(1.0,0.0,0.0,0.0,0.0,0.0,0.0);
#11=DIMENSIONAL_EXPONENTS(0.0,0.0,0.0,0.0,0.0,0.0,0.0);
#12=(NAMED_UNIT(#10)LENGTH_UNIT()SI_UNIT(.MILLI.,.METRE.));
#13=(NAMED_UNIT(#11)PLANE_ANGLE_UNIT()SI_UNIT($,.RADIAN.));
#14=(NAMED_UNIT(#11)SOLID_ANGLE_UNIT()SI_UNIT($,.STERADIAN.));
#15=LENGTH_MEASURE_WITH_UNIT(LENGTH_MEASURE(25.4),#12);
#16= (CONVERSION_BASED_UNIT('INCH',#15)LENGTH_UNIT()NAMED_UNIT(#10));
#17=UNCERTAINTY_MEASURE_WITH_UNIT(LENGTH_MEASURE(1.0E-006),#16,'','');
#18=(GEOMETRIC_REPRESENTATION_CONTEXT(3)GLOBAL_UNCERTAINTY_ASSIGNED_CONTEXT((#17))GLOBAL_UNIT_ASSIGNED_CONTEXT((#16,#13,#14))REPRESENTATION_CONTEXT('NONE','WORKSPACE'));
#20=CARTESIAN_POINT('',(0.00000000000000,0.00000000000000,0.00000000000000));
#21=DIRECTION('',(0.00000000000000,0.00000000000000,1.00000000000000));
#22=DIRECTION('',(1.00000000000000,0.00000000000000,0.00000000000000));
#23=AXIS2_PLACEMENT_3D('',#20,#21,#22);
#24=CARTESIAN_POINT('',(-0.750000000000000,6.00000000000000,0.125000000000000));
#25=VERTEX_POINT('',#24);
#26=CARTESIAN_POINT('',(-0.750000000000000,6.00000000000000,1.00000000000000));
#27=VERTEX_POINT('',#26);
#28=CARTESIAN_POINT('',(-0.750000000000000,6.00000000000000,1.00000000000000));
#29=DIRECTION('',(0.00000000000000,6.12323399573677E-17,1.00000000000000));
#30=VECTOR('',#29,1.00000000000000);
#31=LINE('',#28,#30);
#32=EDGE_CURVE('',#25,#27,#31,.T.);
#33=ORIENTED_EDGE('',*,*,#32,.T.);
#34=CARTESIAN_POINT('',(-0.750000000000000,6.12323399573677E-17,1.00000000000000));
#35=VERTEX_POINT('',#34);
#36=CARTESIAN_POINT('',(-0.750000000000000,6.12323399573677E-17,1.00000000000000));
#37=DIRECTION('',(0.00000000000000,1.00000000000000,-6.01370805005293E-17));
#38=VECTOR('',#37,1.00000000000000);
#39=LINE('',#36,#38);
#40=EDGE_CURVE('',#35,#27,#39,.T.);
#41=ORIENTED_EDGE('',*,*,#40,.F.);
#42=CARTESIAN_POINT('',(-0.750000000000000,7.65404249467095E-18,0.125000000000000));
#43=VERTEX_POINT('',#42);
#44=CARTESIAN_POINT('',(-0.750000000000000,6.12323399573677E-17,1.00000000000000));
#45=DIRECTION('',(0.00000000000000,-6.12323399573677E-17,-1.00000000000000));
#46=VECTOR('',#45,1.00000000000000);
#47=LINE('',#44,#46);
#48=EDGE_CURVE('',#35,#43,#47,.T.);
#49=ORIENTED_EDGE('',*,*,#48,.T.);
#50=CARTESIAN_POINT('',(-0.750000000000000,7.65404249467095E-18,0.125000000000000));
#51=DIRECTION('',(0.00000000000000,1.00000000000000,-6.01370805005293E-17));
#52=VECTOR('',#51,1.00000000000000);
#53=LINE('',#50,#52);
#54=EDGE_CURVE('',#43,#25,#53,.T.);
#55=ORIENTED_EDGE('',*,*,#54,.T.);
#56=EDGE_LOOP('',(#33,#41,#49,#55));
#57=FACE_OUTER_BOUND('',#56,.T.);
#58=CARTESIAN_POINT('',(-0.750000000000000,3.44431912260193E-17,0.562500000000000));
#59=DIRECTION('',(1.00000000000000,0.00000000000000,0.00000000000000));
#60=DIRECTION('',(0.00000000000000,-6.12323399573677E-17,-1.00000000000000));
#61=AXIS2_PLACEMENT_3D('',#58,#59,#60);
#62=PLANE('',#61);
#63=ADVANCED_FACE('',(#57),#62,.T.);
#64=CARTESIAN_POINT('',(-0.875000000000000,6.00000000000000,1.00000000000000));
#65=VERTEX_POINT('',#64);
#66=CARTESIAN_POINT('',(-0.812500000000000,6.00000000000000,1.00000000000000));
#67=DIRECTION('',(0.00000000000000,-1.00000000000000,6.12323399573677E-17));
#68=DIRECTION('',(1.00000000000000,0.00000000000000,0.00000000000000));
#69=AXIS2_PLACEMENT_3D('',#66,#67,#68);
#70=CIRCLE('',#69,0.0625000000000000);
#71=EDGE_CURVE('',#27,#65,#70,.T.);
#72=ORIENTED_EDGE('',*,*,#71,.T.);
#73=CARTESIAN_POINT('',(-0.875000000000000,6.12323399573677E-17,1.00000000000000));
#74=VERTEX_POINT('',#73);
#75=CARTESIAN_POINT('',(-0.875000000000000,6.12323399573677E-17,1.00000000000000));
#76=DIRECTION('',(0.00000000000000,1.00000000000000,-6.01370805005293E-17));
#77=VECTOR('',#76,1.00000000000000);
#78=LINE('',#75,#77);
#79=EDGE_CURVE('',#74,#65,#78,.T.);
#80=ORIENTED_EDGE('',*,*,#79,.F.);
#81=CARTESIAN_POINT('',(-0.812500000000000,6.12323399573677E-17,1.00000000000000));
#82=DIRECTION('',(0.00000000000000,-1.00000000000000,6.12323399573677E-17));
#83=DIRECTION('',(1.00000000000000,0.00000000000000,0.00000000000000));
#84=AXIS2_PLACEMENT_3D('',#81,#82,#83);
#85=CIRCLE('',#84,0.0625000000000000);
#86=EDGE_CURVE('',#35,#74,#85,.T.);
#87=ORIENTED_EDGE('',*,*,#86,.F.);
#88=ORIENTED_EDGE('',*,*,#40,.T.);
#89=EDGE_LOOP('',(#72,#80,#87,#88));
#90=FACE_OUTER_BOUND('',#89,.T.);
#91=CARTESIAN_POINT('',(-0.812500000000000,6.12323399573677E-17,1.00000000000000));
#92=DIRECTION('',(0.00000000000000,1.00000000000000,-6.01370805005293E-17));
#93=DIRECTION('',(0.00000000000000,0.00000000000000,-1.00000000000000));
#94=AXIS2_PLACEMENT_3D('',#91,#92,#93);
#95=CYLINDRICAL_SURFACE('',#94,0.0625000000000000);
#96=ADVANCED_FACE('',(#90),#95,.T.);
#97=CARTESIAN_POINT('',(-0.875000000000000,6.00000000000000,-0.875000000000000));
#98=VERTEX_POINT('',#97);
#99=CARTESIAN_POINT('',(-0.875000000000000,6.00000000000000,1.00000000000000));
#100=DIRECTION('',(0.00000000000000,-6.12323399573676E-17,-1.00000000000000));
#101=VECTOR('',#100,1.00000000000000);
#102=LINE('',#99,#101);
#103=EDGE_CURVE('',#65,#98,#102,.T.);
#104=ORIENTED_EDGE('',*,*,#103,.T.);
#105=CARTESIAN_POINT('',(-0.875000000000000,-5.35782974626967E-17,-0.875000000000000));
#106=VERTEX_POINT('',#105);
#107=CARTESIAN_POINT('',(-0.875000000000000,-5.35782974626967E-17,-0.875000000000000));
#108=DIRECTION('',(0.00000000000000,1.00000000000000,-6.01370805005293E-17));
#109=VECTOR('',#108,1.00000000000000);
#110=LINE('',#107,#109);
#111=EDGE_CURVE('',#106,#98,#110,.T.);
#112=ORIENTED_EDGE('',*,*,#111,.F.);
#113=CARTESIAN_POINT('',(-0.875000000000000,6.12323399573677E-17,1.00000000000000));
#114=DIRECTION('',(0.00000000000000,-6.12323399573676E-17,-1.00000000000000));
#115=VECTOR('',#114,1.00000000000000);
#116=LINE('',#113,#115);
#117=EDGE_CURVE('',#74,#106,#116,.T.);
#118=ORIENTED_EDGE('',*,*,#117,.F.);
#119=ORIENTED_EDGE('',*,*,#79,.T.);
#120=EDGE_LOOP('',(#104,#112,#118,#119));
#121=FACE_OUTER_BOUND('',#120,.T.);
#122=CARTESIAN_POINT('',(-0.875000000000000,3.82702124733550E-18,0.0625000000000000));
#123=DIRECTION('',(-1.00000000000000,0.00000000000000,-0.00000000000000));
#124=DIRECTION('',(-0.00000000000000,6.12323399573676E-17,1.00000000000000));
#125=AXIS2_PLACEMENT_3D('',#122,#123,#124);
#126=PLANE('',#125);
#127=ADVANCED_FACE('',(#121),#126,.T.);
#128=CARTESIAN_POINT('',(-0.750000000000000,6.00000000000000,-0.875000000000000));
#129=VERTEX_POINT('',#128);
#130=CARTESIAN_POINT('',(-0.812500000000000,6.00000000000000,-0.875000000000000));
#131=DIRECTION('',(0.00000000000000,-1.00000000000000,6.12323399573677E-17));
#132=DIRECTION('',(1.00000000000000,0.00000000000000,0.00000000000000));
#133=AXIS2_PLACEMENT_3D('',#130,#131,#132);
#134=CIRCLE('',#133,0.0625000000000000);
#135=EDGE_CURVE('',#98,#129,#134,.T.);
#136=ORIENTED_EDGE('',*,*,#135,.T.);
#137=CARTESIAN_POINT('',(-0.750000000000000,-5.35782974626967E-17,-0.875000000000000));
#138=VERTEX_POINT('',#137);
#139=CARTESIAN_POINT('',(-0.750000000000000,-5.35782974626967E-17,-0.875000000000000));
#140=DIRECTION('',(0.00000000000000,1.00000000000000,-6.01370805005293E-17));
#141=VECTOR('',#140,1.00000000000000);
#142=LINE('',#139,#141);
#143=EDGE_CURVE('',#138,#129,#142,.T.);
#144=ORIENTED_EDGE('',*,*,#143,.F.);
#145=CARTESIAN_POINT('',(-0.812500000000000,-5.35782974626967E-17,-0.875000000000000));
#146=DIRECTION('',(0.00000000000000,-1.00000000000000,6.12323399573677E-17));
#147=DIRECTION('',(1.00000000000000,0.00000000000000,0.00000000000000));
#148=AXIS2_PLACEMENT_3D('',#145,#146,#147);
#149=CIRCLE('',#148,0.0625000000000000);
#150=EDGE_CURVE('',#106,#138,#149,.T.);
#151=ORIENTED_EDGE('',*,*,#150,.F.);
#152=ORIENTED_EDGE('',*,*,#111,.T.);
#153=EDGE_LOOP('',(#136,#144,#151,#152));
#154=FACE_OUTER_BOUND('',#153,.T.);
#155=CARTESIAN_POINT('',(-0.812500000000000,-5.35782974626967E-17,-0.875000000000000));
#156=DIRECTION('',(0.00000000000000,1.00000000000000,-6.01370805005293E-17));
#157=DIRECTION('',(0.00000000000000,0.00000000000000,1.00000000000000));
#158=AXIS2_PLACEMENT_3D('',#155,#156,#157);
#159=CYLINDRICAL_SURFACE('',#158,0.0625000000000000);
#160=ADVANCED_FACE('',(#154),#159,.T.);
#161=CARTESIAN_POINT('',(-0.750000000000000,6.00000000000000,-3.60822483003176E-16));
#162=VERTEX_POINT('',#161);
#163=CARTESIAN_POINT('',(-0.750000000000000,6.00000000000000,-3.60822483003176E-16));
#164=DIRECTION('',(0.00000000000000,6.12323399573676E-17,1.00000000000000));
#165=VECTOR('',#164,1.00000000000000);
#166=LINE('',#163,#165);
#167=EDGE_CURVE('',#129,#162,#166,.T.);
#168=ORIENTED_EDGE('',*,*,#167,.T.);
#169=CARTESIAN_POINT('',(-0.750000000000000,0.00000000000000,0.00000000000000));
#170=VERTEX_POINT('',#169);
#171=CARTESIAN_POINT('',(-0.750000000000000,0.00000000000000,0.00000000000000));
#172=DIRECTION('',(0.00000000000000,1.00000000000000,-6.01370805005293E-17));
#173=VECTOR('',#172,1.00000000000000);
#174=LINE('',#171,#173);
#175=EDGE_CURVE('',#170,#162,#174,.T.);
#176=ORIENTED_EDGE('',*,*,#175,.F.);
#177=CARTESIAN_POINT('',(-0.750000000000000,0.00000000000000,0.00000000000000));
#178=DIRECTION('',(0.00000000000000,-6.12323399573676E-17,-1.00000000000000));
#179=VECTOR('',#178,1.00000000000000);
#180=LINE('',#177,#179);
#181=EDGE_CURVE('',#170,#138,#180,.T.);
#182=ORIENTED_EDGE('',*,*,#181,.T.);
#183=ORIENTED_EDGE('',*,*,#143,.T.);
#184=EDGE_LOOP('',(#168,#176,#182,#183));
#185=FACE_OUTER_BOUND('',#184,.T.);
#186=CARTESIAN_POINT('',(-0.750000000000000,-2.67891487313483E-17,-0.437500000000000));
#187=DIRECTION('',(1.00000000000000,0.00000000000000,0.00000000000000));
#188=DIRECTION('',(0.00000000000000,-6.12323399573676E-17,-1.00000000000000));
#189=AXIS2_PLACEMENT_3D('',#186,#187,#188);
#190=PLANE('',#189);
#191=ADVANCED_FACE('',(#185),#190,.T.);
#192=CARTESIAN_POINT('',(0.750000000000000,6.00000000000000,-3.60822483003176E-16));
#193=VERTEX_POINT('',#192);
#194=CARTESIAN_POINT('',(-0.750000000000000,6.00000000000000,-3.60822483003176E-16));
#195=DIRECTION('',(1.00000000000000,0.00000000000000,0.00000000000000));
#196=VECTOR('',#195,1.00000000000000);
#197=LINE('',#194,#196);
#198=EDGE_CURVE('',#162,#193,#197,.T.);
#199=ORIENTED_EDGE('',*,*,#198,.T.);
#200=CARTESIAN_POINT('',(0.750000000000000,0.00000000000000,0.00000000000000));
#201=VERTEX_POINT('',#200);
#202=CARTESIAN_POINT('',(0.750000000000000,0.00000000000000,0.00000000000000));
#203=DIRECTION('',(0.00000000000000,1.00000000000000,-6.01370805005293E-17));
#204=VECTOR('',#203,1.00000000000000);
#205=LINE('',#202,#204);
#206=EDGE_CURVE('',#201,#193,#205,.T.);
#207=ORIENTED_EDGE('',*,*,#206,.F.);
#208=CARTESIAN_POINT('',(-0.750000000000000,0.00000000000000,0.00000000000000));
#209=DIRECTION('',(1.00000000000000,0.00000000000000,0.00000000000000));
#210=VECTOR('',#209,1.00000000000000);
#211=LINE('',#208,#210);
#212=EDGE_CURVE('',#170,#201,#211,.T.);
#213=ORIENTED_EDGE('',*,*,#212,.F.);
#214=ORIENTED_EDGE('',*,*,#175,.T.);
#215=EDGE_LOOP('',(#199,#207,#213,#214));
#216=FACE_OUTER_BOUND('',#215,.T.);
#217=CARTESIAN_POINT('',(0.00000000000000,0.00000000000000,0.00000000000000));
#218=DIRECTION('',(0.00000000000000,-6.01370805005293E-17,-1.00000000000000));
#219=DIRECTION('',(-1.00000000000000,-0.00000000000000,-0.00000000000000));
#220=AXIS2_PLACEMENT_3D('',#217,#218,#219);
#221=PLANE('',#220);
#222=ADVANCED_FACE('',(#216),#221,.T.);
#223=CARTESIAN_POINT('',(0.750000000000000,6.00000000000000,-0.875000000000000));
#224=VERTEX_POINT('',#223);
#225=CARTESIAN_POINT('',(0.750000000000000,6.00000000000000,-0.875000000000000));
#226=DIRECTION('',(-0.00000000000000,-6.12323399573676E-17,-1.00000000000000));
#227=VECTOR('',#226,1.00000000000000);
#228=LINE('',#225,#227);
#229=EDGE_CURVE('',#193,#224,#228,.T.);
#230=ORIENTED_EDGE('',*,*,#229,.T.);
#231=CARTESIAN_POINT('',(0.750000000000000,-5.35782974626967E-17,-0.875000000000000));
#232=VERTEX_POINT('',#231);
#233=CARTESIAN_POINT('',(0.750000000000000,-5.35782974626967E-17,-0.875000000000000));
#234=DIRECTION('',(0.00000000000000,1.00000000000000,-6.01370805005293E-17));
#235=VECTOR('',#234,1.00000000000000);
#236=LINE('',#233,#235);
#237=EDGE_CURVE('',#232,#224,#236,.T.);
#238=ORIENTED_EDGE('',*,*,#237,.F.);
#239=CARTESIAN_POINT('',(0.750000000000000,-5.35782974626967E-17,-0.875000000000000));
#240=DIRECTION('',(0.00000000000000,6.12323399573676E-17,1.00000000000000));
#241=VECTOR('',#240,1.00000000000000);
#242=LINE('',#239,#241);
#243=EDGE_CURVE('',#232,#201,#242,.T.);
#244=ORIENTED_EDGE('',*,*,#243,.T.);
#245=ORIENTED_EDGE('',*,*,#206,.T.);
#246=EDGE_LOOP('',(#230,#238,#244,#245));
#247=FACE_OUTER_BOUND('',#246,.T.);
#248=CARTESIAN_POINT('',(0.750000000000000,-2.67891487313483E-17,-0.437500000000000));
#249=DIRECTION('',(-1.00000000000000,0.00000000000000,0.00000000000000));
#250=DIRECTION('',(0.00000000000000,6.12323399573676E-17,1.00000000000000));
#251=AXIS2_PLACEMENT_3D('',#248,#249,#250);
#252=PLANE('',#251);
#253=ADVANCED_FACE('',(#247),#252,.T.);
#254=CARTESIAN_POINT('',(0.875000000000000,6.00000000000000,-0.875000000000000));
#255=VERTEX_POINT('',#254);
#256=CARTESIAN_POINT('',(0.812500000000000,6.00000000000000,-0.875000000000000));
#257=DIRECTION('',(0.00000000000000,-1.00000000000000,6.12323399573677E-17));
#258=DIRECTION('',(1.00000000000000,0.00000000000000,0.00000000000000));
#259=AXIS2_PLACEMENT_3D('',#256,#257,#258);
#260=CIRCLE('',#259,0.0625000000000000);
#261=EDGE_CURVE('',#224,#255,#260,.T.);
#262=ORIENTED_EDGE('',*,*,#261,.T.);
#263=CARTESIAN_POINT('',(0.875000000000000,-5.35782974626967E-17,-0.875000000000000));
#264=VERTEX_POINT('',#263);
#265=CARTESIAN_POINT('',(0.875000000000000,-5.35782974626967E-17,-0.875000000000000));
#266=DIRECTION('',(0.00000000000000,1.00000000000000,-6.01370805005293E-17));
#267=VECTOR('',#266,1.00000000000000);
#268=LINE('',#265,#267);
#269=EDGE_CURVE('',#264,#255,#268,.T.);
#270=ORIENTED_EDGE('',*,*,#269,.F.);
#271=CARTESIAN_POINT('',(0.812500000000000,-5.35782974626967E-17,-0.875000000000000));
#272=DIRECTION('',(0.00000000000000,-1.00000000000000,6.12323399573677E-17));
#273=DIRECTION('',(1.00000000000000,0.00000000000000,0.00000000000000));
#274=AXIS2_PLACEMENT_3D('',#271,#272,#273);
#275=CIRCLE('',#274,0.0625000000000000);
#276=EDGE_CURVE('',#232,#264,#275,.T.);
#277=ORIENTED_EDGE('',*,*,#276,.F.);
#278=ORIENTED_EDGE('',*,*,#237,.T.);
#279=EDGE_LOOP('',(#262,#270,#277,#278));
#280=FACE_OUTER_BOUND('',#279,.T.);
#281=CARTESIAN_POINT('',(0.812500000000000,-5.35782974626967E-17,-0.875000000000000));
#282=DIRECTION('',(0.00000000000000,1.00000000000000,-6.01370805005293E-17));
#283=DIRECTION('',(0.00000000000000,0.00000000000000,1.00000000000000));
#284=AXIS2_PLACEMENT_3D('',#281,#282,#283);
#285=CYLINDRICAL_SURFACE('',#284,0.0625000000000000);
#286=ADVANCED_FACE('',(#280),#285,.T.);
#287=CARTESIAN_POINT('',(0.875000000000000,6.00000000000000,1.00000000000000));
#288=VERTEX_POINT('',#287);
#289=CARTESIAN_POINT('',(0.875000000000000,6.00000000000000,-0.875000000000000));
#290=DIRECTION('',(0.00000000000000,6.12323399573676E-17,1.00000000000000));
#291=VECTOR('',#290,1.00000000000000);
#292=LINE('',#289,#291);
#293=EDGE_CURVE('',#255,#288,#292,.T.);
#294=ORIENTED_EDGE('',*,*,#293,.T.);
#295=CARTESIAN_POINT('',(0.875000000000000,6.12323399573677E-17,1.00000000000000));
#296=VERTEX_POINT('',#295);
#297=CARTESIAN_POINT('',(0.875000000000000,6.12323399573677E-17,1.00000000000000));
#298=DIRECTION('',(0.00000000000000,1.00000000000000,-6.01370805005293E-17));
#299=VECTOR('',#298,1.00000000000000);
#300=LINE('',#297,#299);
#301=EDGE_CURVE('',#296,#288,#300,.T.);
#302=ORIENTED_EDGE('',*,*,#301,.F.);
#303=CARTESIAN_POINT('',(0.875000000000000,-5.35782974626967E-17,-0.875000000000000));
#304=DIRECTION('',(0.00000000000000,6.12323399573676E-17,1.00000000000000));
#305=VECTOR('',#304,1.00000000000000);
#306=LINE('',#303,#305);
#307=EDGE_CURVE('',#264,#296,#306,.T.);
#308=ORIENTED_EDGE('',*,*,#307,.F.);
#309=ORIENTED_EDGE('',*,*,#269,.T.);
#310=EDGE_LOOP('',(#294,#302,#308,#309));
#311=FACE_OUTER_BOUND('',#310,.T.);
#312=CARTESIAN_POINT('',(0.875000000000000,3.82702124733550E-18,0.0625000000000000));
#313=DIRECTION('',(1.00000000000000,-0.00000000000000,0.00000000000000));
#314=DIRECTION('',(-0.00000000000000,-6.12323399573676E-17,-1.00000000000000));
#315=AXIS2_PLACEMENT_3D('',#312,#313,#314);
#316=PLANE('',#315);
#317=ADVANCED_FACE('',(#311),#316,.T.);
#318=CARTESIAN_POINT('',(0.750000000000000,6.00000000000000,1.00000000000000));
#319=VERTEX_POINT('',#318);
#320=CARTESIAN_POINT('',(0.812500000000000,6.00000000000000,1.00000000000000));
#321=DIRECTION('',(0.00000000000000,-1.00000000000000,6.12323399573677E-17));
#322=DIRECTION('',(1.00000000000000,0.00000000000000,0.00000000000000));
#323=AXIS2_PLACEMENT_3D('',#320,#321,#322);
#324=CIRCLE('',#323,0.0625000000000000);
#325=EDGE_CURVE('',#288,#319,#324,.T.);
#326=ORIENTED_EDGE('',*,*,#325,.T.);
#327=CARTESIAN_POINT('',(0.750000000000000,6.12323399573677E-17,1.00000000000000));
#328=VERTEX_POINT('',#327);
#329=CARTESIAN_POINT('',(0.750000000000000,6.12323399573677E-17,1.00000000000000));
#330=DIRECTION('',(0.00000000000000,1.00000000000000,-6.01370805005293E-17));
#331=VECTOR('',#330,1.00000000000000);
#332=LINE('',#329,#331);
#333=EDGE_CURVE('',#328,#319,#332,.T.);
#334=ORIENTED_EDGE('',*,*,#333,.F.);
#335=CARTESIAN_POINT('',(0.812500000000000,6.12323399573677E-17,1.00000000000000));
#336=DIRECTION('',(0.00000000000000,-1.00000000000000,6.12323399573677E-17));
#337=DIRECTION('',(1.00000000000000,0.00000000000000,0.00000000000000));
#338=AXIS2_PLACEMENT_3D('',#335,#336,#337);
#339=CIRCLE('',#338,0.0625000000000000);
#340=EDGE_CURVE('',#296,#328,#339,.T.);
#341=ORIENTED_EDGE('',*,*,#340,.F.);
#342=ORIENTED_EDGE('',*,*,#301,.T.);
#343=EDGE_LOOP('',(#326,#334,#341,#342));
#344=FACE_OUTER_BOUND('',#343,.T.);
#345=CARTESIAN_POINT('',(0.812500000000000,6.12323399573677E-17,1.00000000000000));
#346=DIRECTION('',(0.00000000000000,1.00000000000000,-6.01370805005293E-17));
#347=DIRECTION('',(0.00000000000000,0.00000000000000,-1.00000000000000));
#348=AXIS2_PLACEMENT_3D('',#345,#346,#347);
#349=CYLINDRICAL_SURFACE('',#348,0.0625000000000000);
#350=ADVANCED_FACE('',(#344),#349,.T.);
#351=CARTESIAN_POINT('',(0.750000000000000,6.00000000000000,0.125000000000000));
#352=VERTEX_POINT('',#351);
#353=CARTESIAN_POINT('',(0.750000000000000,6.00000000000000,0.125000000000000));
#354=DIRECTION('',(-0.00000000000000,-6.12323399573677E-17,-1.00000000000000));
#355=VECTOR('',#354,1.00000000000000);
#356=LINE('',#353,#355);
#357=EDGE_CURVE('',#319,#352,#356,.T.);
#358=ORIENTED_EDGE('',*,*,#357,.T.);
#359=CARTESIAN_POINT('',(0.750000000000000,7.65404249467095E-18,0.125000000000000));
#360=VERTEX_POINT('',#359);
#361=CARTESIAN_POINT('',(0.750000000000000,7.65404249467095E-18,0.125000000000000));
#362=DIRECTION('',(0.00000000000000,1.00000000000000,-6.01370805005293E-17));
#363=VECTOR('',#362,1.00000000000000);
#364=LINE('',#361,#363);
#365=EDGE_CURVE('',#360,#352,#364,.T.);
#366=ORIENTED_EDGE('',*,*,#365,.F.);
#367=CARTESIAN_POINT('',(0.750000000000000,7.65404249467095E-18,0.125000000000000));
#368=DIRECTION('',(0.00000000000000,6.12323399573677E-17,1.00000000000000));
#369=VECTOR('',#368,1.00000000000000);
#370=LINE('',#367,#369);
#371=EDGE_CURVE('',#360,#328,#370,.T.);
#372=ORIENTED_EDGE('',*,*,#371,.T.);
#373=ORIENTED_EDGE('',*,*,#333,.T.);
#374=EDGE_LOOP('',(#358,#366,#372,#373));
#375=FACE_OUTER_BOUND('',#374,.T.);
#376=CARTESIAN_POINT('',(0.750000000000000,3.44431912260193E-17,0.562500000000000));
#377=DIRECTION('',(-1.00000000000000,0.00000000000000,0.00000000000000));
#378=DIRECTION('',(0.00000000000000,6.12323399573677E-17,1.00000000000000));
#379=AXIS2_PLACEMENT_3D('',#376,#377,#378);
#380=PLANE('',#379);
#381=ADVANCED_FACE('',(#375),#380,.T.);
#382=CARTESIAN_POINT('',(-0.750000000000000,6.00000000000000,0.125000000000000));
#383=DIRECTION('',(-1.00000000000000,-0.00000000000000,-0.00000000000000));
#384=VECTOR('',#383,1.00000000000000);
#385=LINE('',#382,#384);
#386=EDGE_CURVE('',#352,#25,#385,.T.);
#387=ORIENTED_EDGE('',*,*,#386,.T.);
#388=ORIENTED_EDGE('',*,*,#54,.F.);
#389=CARTESIAN_POINT('',(-0.750000000000000,7.65404249467095E-18,0.125000000000000));
#390=DIRECTION('',(1.00000000000000,0.00000000000000,0.00000000000000));
#391=VECTOR('',#390,1.00000000000000);
#392=LINE('',#389,#391);
#393=EDGE_CURVE('',#43,#360,#392,.T.);
#394=ORIENTED_EDGE('',*,*,#393,.T.);
#395=ORIENTED_EDGE('',*,*,#365,.T.);
#396=EDGE_LOOP('',(#387,#388,#394,#395));
#397=FACE_OUTER_BOUND('',#396,.T.);
#398=CARTESIAN_POINT('',(0.00000000000000,7.65404249467095E-18,0.125000000000000));
#399=DIRECTION('',(-0.00000000000000,6.01370805005293E-17,1.00000000000000));
#400=DIRECTION('',(1.00000000000000,0.00000000000000,0.00000000000000));
#401=AXIS2_PLACEMENT_3D('',#398,#399,#400);
#402=PLANE('',#401);
#403=ADVANCED_FACE('',(#397),#402,.T.);
#404=ORIENTED_EDGE('',*,*,#32,.F.);
#405=ORIENTED_EDGE('',*,*,#386,.F.);
#406=ORIENTED_EDGE('',*,*,#357,.F.);
#407=ORIENTED_EDGE('',*,*,#325,.F.);
#408=ORIENTED_EDGE('',*,*,#293,.F.);
#409=ORIENTED_EDGE('',*,*,#261,.F.);
#410=ORIENTED_EDGE('',*,*,#229,.F.);
#411=ORIENTED_EDGE('',*,*,#198,.F.);
#412=ORIENTED_EDGE('',*,*,#167,.F.);
#413=ORIENTED_EDGE('',*,*,#135,.F.);
#414=ORIENTED_EDGE('',*,*,#103,.F.);
#415=ORIENTED_EDGE('',*,*,#71,.F.);
#416=EDGE_LOOP('',(#404,#405,#406,#407,#408,#409,#410,#411,#412,#413,#414,#415));
#417=FACE_OUTER_BOUND('',#416,.T.);
#418=CARTESIAN_POINT('',(-0.281512500000000,6.00000000000000,0.125000000000000));
#419=DIRECTION('',(0.00000000000000,-1.00000000000000,6.12323399573676E-17));
#420=DIRECTION('',(1.00000000000000,0.00000000000000,0.00000000000000));
#421=AXIS2_PLACEMENT_3D('',#418,#419,#420);
#422=PLANE('',#421);
#423=ADVANCED_FACE('',(#417),#422,.F.);
#424=ORIENTED_EDGE('',*,*,#393,.F.);
#425=ORIENTED_EDGE('',*,*,#48,.F.);
#426=ORIENTED_EDGE('',*,*,#86,.T.);
#427=ORIENTED_EDGE('',*,*,#117,.T.);
#428=ORIENTED_EDGE('',*,*,#150,.T.);
#429=ORIENTED_EDGE('',*,*,#181,.F.);
#430=ORIENTED_EDGE('',*,*,#212,.T.);
#431=ORIENTED_EDGE('',*,*,#243,.F.);
#432=ORIENTED_EDGE('',*,*,#276,.T.);
#433=ORIENTED_EDGE('',*,*,#307,.T.);
#434=ORIENTED_EDGE('',*,*,#340,.T.);
#435=ORIENTED_EDGE('',*,*,#371,.F.);
#436=EDGE_LOOP('',(#424,#425,#426,#427,#428,#429,#430,#431,#432,#433,#434,#435));
#437=FACE_OUTER_BOUND('',#436,.T.);
#438=CARTESIAN_POINT('',(-0.281512500000000,7.65404249467095E-18,0.125000000000000));
#439=DIRECTION('',(-0.00000000000000,-1.00000000000000,6.12323399573676E-17));
#440=DIRECTION('',(1.00000000000000,-0.00000000000000,0.00000000000000));
#441=AXIS2_PLACEMENT_3D('',#438,#439,#440);
#442=PLANE('',#441);
#443=ADVANCED_FACE('',(#437),#442,.T.);
#444=CLOSED_SHELL('',(#63,#96,#127,#160,#191,#222,#253,#286,#317,#350,#381,#403,#423,#443));
#445=MANIFOLD_SOLID_BREP('',#444);
#446=COLOUR_RGB('',1.00000000000000,0.00000000000000,0.00000000000000);
#447=FILL_AREA_STYLE_COLOUR('',#446);
#448=FILL_AREA_STYLE('',(#447));
#449=SURFACE_STYLE_FILL_AREA(#448);
#450=SURFACE_SIDE_STYLE('',(#449));
#451=SURFACE_STYLE_USAGE(.BOTH.,#450);
#452=PRESENTATION_STYLE_ASSIGNMENT((#451));
#453=STYLED_ITEM('',(#452),#445);
#454=ADVANCED_BREP_SHAPE_REPRESENTATION('',(#445,#23),#18);
#455=PRODUCT('', '', ' ',(#2));
#456=PRODUCT_DEFINITION_FORMATION_WITH_SPECIFIED_SOURCE (' ', ' ', #455, .NOT_KNOWN.) ;
#457=PRODUCT_CATEGORY('part','') ;
#458=PRODUCT_RELATED_PRODUCT_CATEGORY('detail', ' ', (#455)) ;
#459=PRODUCT_CATEGORY_RELATIONSHIP(' ', ' ', #457, #458);
#460=PRODUCT_DEFINITION('', '', #456, #1);
#461=PRODUCT_DEFINITION_SHAPE('NONE', 'NONE', #460);
#462=SHAPE_DEFINITION_REPRESENTATION(#461, #454);
#463=PRESENTATION_LAYER_ASSIGNMENT('1','Unnamed [1]',(#445));
#464=MECHANICAL_DESIGN_GEOMETRIC_PRESENTATION_REPRESENTATION('',(#453), #18);
ENDSEC;
END-ISO-10303-21;
