ISO-10303-21;
HEADER;
FILE_DESCRIPTION(('', 'CAx-IF Rec.Pracs.---Representation and Presentation of Product Manufacturing Information (PMI)---4.0---2014-10-13'),'2;1');
FILE_NAME('C:/Program Files/Kubotek/KeyCreatorPro.2021.SP1/STEP/SG2301.STP', '2021-04-14T12:34:38',(''), (''), 'Kubotek Kosmos Version 3.0.7268.7268', 'KeyCreator Pro', '');
FILE_SCHEMA(('AP242_MANAGED_MODEL_BASED_3D_ENGINEERING_MIM_LF  { 1 0 10303 442 1 1 4 }'));
ENDSEC;
DATA;
#1=PRODUCT_DEFINITION_CONTEXT('',#4,'design');
#2=PRODUCT_CONTEXT('',#4,'mechanical');
#3=APPLICATION_PROTOCOL_DEFINITION('international standard','ap242_managed_model_based_3d_engineering',2011,#4);
#4=APPLICATION_CONTEXT('managed model based 3d engineering');
#10=DIMENSIONAL_EXPONENTS(1.0,0.0,0.0,0.0,0.0,0.0,0.0);
#11=DIMENSIONAL_EXPONENTS(0.0,0.0,0.0,0.0,0.0,0.0,0.0);
#12=(LENGTH_UNIT()NAMED_UNIT(#10)SI_UNIT(.MILLI.,.METRE.));
#13=(NAMED_UNIT(#11)PLANE_ANGLE_UNIT()SI_UNIT($,.RADIAN.));
#14=(NAMED_UNIT(#11)SI_UNIT($,.STERADIAN.)SOLID_ANGLE_UNIT());
#15=LENGTH_MEASURE_WITH_UNIT(LENGTH_MEASURE(25.4),#12);
#16= (CONVERSION_BASED_UNIT('INCH',#15)LENGTH_UNIT()NAMED_UNIT(#10));
#17=UNCERTAINTY_MEASURE_WITH_UNIT(LENGTH_MEASURE(1.0E-006),#16,'','');
#18=(GEOMETRIC_REPRESENTATION_CONTEXT(3)GLOBAL_UNCERTAINTY_ASSIGNED_CONTEXT((#17))GLOBAL_UNIT_ASSIGNED_CONTEXT((#16,#13,#14))REPRESENTATION_CONTEXT('NONE','WORKSPACE'));
#20=CARTESIAN_POINT('',(0.00000000000000,0.00000000000000,0.00000000000000));
#21=DIRECTION('',(0.00000000000000,0.00000000000000,1.00000000000000));
#22=DIRECTION('',(1.00000000000000,0.00000000000000,0.00000000000000));
#23=AXIS2_PLACEMENT_3D('',#20,#21,#22);
#24=CARTESIAN_POINT('',(-0.0955916344346370,-3.38393551206480,-0.364999999982363));
#25=VERTEX_POINT('',#24);
#26=CARTESIAN_POINT('',(-0.114909961964348,-3.38393551206480,-0.350177819778285));
#27=VERTEX_POINT('',#26);
#28=CARTESIAN_POINT('',(-0.0955918310461935,-3.38393551206480,-0.344999999983330));
#29=DIRECTION('',(0.00000000000000,1.00000000000000,-6.12323399573676E-17));
#30=DIRECTION('',(9.83057782425606E-06,-6.12323399544089E-17,-0.999999999951680));
#31=AXIS2_PLACEMENT_3D('',#28,#29,#30);
#32=CIRCLE('',#31,0.0200000000000000);
#33=EDGE_CURVE('',#25,#27,#32,.T.);
#34=ORIENTED_EDGE('',*,*,#33,.T.);
#35=CARTESIAN_POINT('',(-0.114909961964349,2.61606448793520,-0.350177819778286));
#36=VERTEX_POINT('',#35);
#37=CARTESIAN_POINT('',(-0.114909961964349,-0.383935512064805,-0.350177819778286));
#38=DIRECTION('',(1.52655665885959E-16,-1.00000000000000,1.11022302462516E-16));
#39=VECTOR('',#38,1.00000000000000);
#40=LINE('',#37,#39);
#41=EDGE_CURVE('',#36,#27,#40,.T.);
#42=ORIENTED_EDGE('',*,*,#41,.F.);
#43=CARTESIAN_POINT('',(-0.0955916344346380,2.61606448793520,-0.364999999982364));
#44=VERTEX_POINT('',#43);
#45=CARTESIAN_POINT('',(-0.0955918310461944,2.61606448793520,-0.344999999983331));
#46=DIRECTION('',(0.00000000000000,-1.00000000000000,6.12323399573676E-17));
#47=DIRECTION('',(9.83057782425606E-06,-6.12323399544089E-17,-0.999999999951680));
#48=AXIS2_PLACEMENT_3D('',#45,#46,#47);
#49=CIRCLE('',#48,0.0200000000000000);
#50=EDGE_CURVE('',#36,#44,#49,.T.);
#51=ORIENTED_EDGE('',*,*,#50,.T.);
#52=CARTESIAN_POINT('',(-0.0955916344346375,-0.383935512064805,-0.364999999982364));
#53=DIRECTION('',(1.52655665885959E-16,-1.00000000000000,1.11022302462516E-16));
#54=VECTOR('',#53,1.00000000000000);
#55=LINE('',#52,#54);
#56=EDGE_CURVE('',#44,#25,#55,.T.);
#57=ORIENTED_EDGE('',*,*,#56,.T.);
#58=EDGE_LOOP('',(#34,#42,#51,#57));
#59=FACE_OUTER_BOUND('',#58,.T.);
#60=CARTESIAN_POINT('',(-0.0955918310461940,-0.383935512064805,-0.344999999983330));
#61=DIRECTION('',(1.52655665885959E-16,-1.00000000000000,1.11022302462516E-16));
#62=DIRECTION('',(0.608727983111202,0.00000000000000,0.793379003110977));
#63=AXIS2_PLACEMENT_3D('',#60,#61,#62);
#64=CYLINDRICAL_SURFACE('',#63,0.0200000000000000);
#65=ADVANCED_FACE('',(#59),#64,.T.);
#66=CARTESIAN_POINT('',(-0.145594092076676,2.61606448793520,-0.115000491523335));
#67=VERTEX_POINT('',#66);
#68=CARTESIAN_POINT('',(-0.145594092076675,-3.38393551206480,-0.115000491523334));
#69=VERTEX_POINT('',#68);
#70=CARTESIAN_POINT('',(-0.145594092076676,-0.383935512064805,-0.115000491523334));
#71=DIRECTION('',(1.52655665885959E-16,-1.00000000000000,1.11022302462516E-16));
#72=VECTOR('',#71,1.00000000000000);
#73=LINE('',#70,#72);
#74=EDGE_CURVE('',#67,#69,#73,.T.);
#75=ORIENTED_EDGE('',*,*,#74,.F.);
#76=CARTESIAN_POINT('',(0.754405929352620,2.61606448793520,-0.117175929005304));
#77=DIRECTION('',(-9.40395480657830E-38,-1.00000000000000,6.12323399573677E-17));
#78=DIRECTION('',(9.83057781873964E-06,-6.12323399544089E-17,-0.999999999951680));
#79=AXIS2_PLACEMENT_3D('',#76,#77,#78);
#80=CIRCLE('',#79,0.900000000000000);
#81=EDGE_CURVE('',#67,#36,#80,.T.);
#82=ORIENTED_EDGE('',*,*,#81,.T.);
#83=ORIENTED_EDGE('',*,*,#41,.T.);
#84=CARTESIAN_POINT('',(0.754405929352621,-3.38393551206480,-0.117175929005303));
#85=DIRECTION('',(9.40395480657830E-38,1.00000000000000,-6.12323399573677E-17));
#86=DIRECTION('',(9.83057781873964E-06,-6.12323399544089E-17,-0.999999999951680));
#87=AXIS2_PLACEMENT_3D('',#84,#85,#86);
#88=CIRCLE('',#87,0.900000000000000);
#89=EDGE_CURVE('',#27,#69,#88,.T.);
#90=ORIENTED_EDGE('',*,*,#89,.T.);
#91=EDGE_LOOP('',(#75,#82,#83,#90));
#92=FACE_OUTER_BOUND('',#91,.T.);
#93=CARTESIAN_POINT('',(0.754405929352620,-0.383935512064805,-0.117175929005303));
#94=DIRECTION('',(1.52655665885959E-16,-1.00000000000000,1.11022302462516E-16));
#95=DIRECTION('',(9.83057781873964E-06,-1.11020801763748E-16,-0.999999999951680));
#96=AXIS2_PLACEMENT_3D('',#93,#94,#95);
#97=CYLINDRICAL_SURFACE('',#96,0.900000000000000);
#98=ADVANCED_FACE('',(#92),#97,.T.);
#99=ORIENTED_EDGE('',*,*,#74,.T.);
#100=CARTESIAN_POINT('',(-0.145598515836694,-3.38393551206480,0.334999508454922));
#101=VERTEX_POINT('',#100);
#102=CARTESIAN_POINT('',(-0.145598515836694,-3.38393551206480,0.334999508454922));
#103=DIRECTION('',(-9.83057781974346E-06,1.23358113847240E-16,0.999999999951680));
#104=VECTOR('',#103,1.00000000000000);
#105=LINE('',#102,#104);
#106=EDGE_CURVE('',#69,#101,#105,.T.);
#107=ORIENTED_EDGE('',*,*,#106,.T.);
#108=CARTESIAN_POINT('',(-0.145598515836695,2.61606448793520,0.334999508454921));
#109=VERTEX_POINT('',#108);
#110=CARTESIAN_POINT('',(-0.145598515836695,-0.383935512064804,0.334999508454922));
#111=DIRECTION('',(-1.52655665885959E-16,1.00000000000000,-1.11022302462516E-16));
#112=VECTOR('',#111,1.00000000000000);
#113=LINE('',#110,#112);
#114=EDGE_CURVE('',#101,#109,#113,.T.);
#115=ORIENTED_EDGE('',*,*,#114,.T.);
#116=CARTESIAN_POINT('',(-0.145598515836695,2.61606448793520,0.334999508454921));
#117=DIRECTION('',(9.83057781974346E-06,-1.23358113847240E-16,-0.999999999951680));
#118=VECTOR('',#117,1.00000000000000);
#119=LINE('',#116,#118);
#120=EDGE_CURVE('',#109,#67,#119,.T.);
#121=ORIENTED_EDGE('',*,*,#120,.T.);
#122=EDGE_LOOP('',(#99,#107,#115,#121));
#123=FACE_OUTER_BOUND('',#122,.T.);
#124=CARTESIAN_POINT('',(-0.145596303956685,-0.383935512064804,0.109999508465794));
#125=DIRECTION('',(-0.999999999951680,-1.52656757291967E-16,-9.83057781974346E-06));
#126=DIRECTION('',(9.83057781974346E-06,-1.23358113847240E-16,-0.999999999951680));
#127=AXIS2_PLACEMENT_3D('',#124,#125,#126);
#128=PLANE('',#127);
#129=ADVANCED_FACE('',(#123),#128,.T.);
#130=CARTESIAN_POINT('',(-0.325979275155824,-3.38393551206480,0.334997735207831));
#131=VERTEX_POINT('',#130);
#132=CARTESIAN_POINT('',(-0.325598515827997,-3.38393551206480,0.334997738950915));
#133=DIRECTION('',(-0.999999999951680,2.54340271858286E-53,-9.83057781844820E-06));
#134=VECTOR('',#133,1.00000000000000);
#135=LINE('',#132,#134);
#136=EDGE_CURVE('',#101,#131,#135,.T.);
#137=ORIENTED_EDGE('',*,*,#136,.T.);
#138=CARTESIAN_POINT('',(-0.325979275155825,2.61606448793520,0.334997735207831));
#139=VERTEX_POINT('',#138);
#140=CARTESIAN_POINT('',(-0.325979275155825,-0.383935512064804,0.334997735207831));
#141=DIRECTION('',(1.52655665885959E-16,-1.00000000000000,1.11022302462516E-16));
#142=VECTOR('',#141,1.00000000000000);
#143=LINE('',#140,#142);
#144=EDGE_CURVE('',#139,#131,#143,.T.);
#145=ORIENTED_EDGE('',*,*,#144,.F.);
#146=CARTESIAN_POINT('',(-0.325598515827998,2.61606448793520,0.334997738950914));
#147=DIRECTION('',(0.999999999951680,-2.54340271858286E-53,9.83057781844820E-06));
#148=VECTOR('',#147,1.00000000000000);
#149=LINE('',#146,#148);
#150=EDGE_CURVE('',#139,#109,#149,.T.);
#151=ORIENTED_EDGE('',*,*,#150,.T.);
#152=ORIENTED_EDGE('',*,*,#114,.F.);
#153=EDGE_LOOP('',(#137,#145,#151,#152));
#154=FACE_OUTER_BOUND('',#153,.T.);
#155=CARTESIAN_POINT('',(-0.235788895496260,-0.383935512064804,0.334998621831376));
#156=DIRECTION('',(9.83057781844820E-06,-1.11020801763748E-16,-0.999999999951680));
#157=DIRECTION('',(0.999999999951680,0.00000000000000,9.83057781844820E-06));
#158=AXIS2_PLACEMENT_3D('',#155,#156,#157);
#159=PLANE('',#158);
#160=ADVANCED_FACE('',(#154),#159,.T.);
#161=CARTESIAN_POINT('',(-0.247759356248522,-3.38393551206480,0.114045154214254));
#162=VERTEX_POINT('',#161);
#163=CARTESIAN_POINT('',(0.563819527752574,-3.38393551206480,0.525675710713083));
#164=DIRECTION('',(-3.85185988877447E-34,-1.00000000000000,6.12323399573677E-17));
#165=DIRECTION('',(0.0174622355170145,-6.12230034669848E-17,-0.999847523540839));
#166=AXIS2_PLACEMENT_3D('',#163,#164,#165);
#167=CIRCLE('',#166,0.910000000000000);
#168=EDGE_CURVE('',#131,#162,#167,.T.);
#169=ORIENTED_EDGE('',*,*,#168,.T.);
#170=CARTESIAN_POINT('',(-0.247759356248523,2.61606448793520,0.114045154214253));
#171=VERTEX_POINT('',#170);
#172=CARTESIAN_POINT('',(-0.247759356248522,-0.383935512064804,0.114045154214253));
#173=DIRECTION('',(-1.52655665885959E-16,1.00000000000000,-1.11022302462516E-16));
#174=VECTOR('',#173,1.00000000000000);
#175=LINE('',#172,#174);
#176=EDGE_CURVE('',#162,#171,#175,.T.);
#177=ORIENTED_EDGE('',*,*,#176,.T.);
#178=CARTESIAN_POINT('',(0.563819527752573,2.61606448793520,0.525675710713082));
#179=DIRECTION('',(3.85185988877447E-34,1.00000000000000,-6.12323399573677E-17));
#180=DIRECTION('',(0.0174622355170145,-6.12230034669848E-17,-0.999847523540839));
#181=AXIS2_PLACEMENT_3D('',#178,#179,#180);
#182=CIRCLE('',#181,0.910000000000000);
#183=EDGE_CURVE('',#171,#139,#182,.T.);
#184=ORIENTED_EDGE('',*,*,#183,.T.);
#185=ORIENTED_EDGE('',*,*,#144,.T.);
#186=EDGE_LOOP('',(#169,#177,#184,#185));
#187=FACE_OUTER_BOUND('',#186,.T.);
#188=CARTESIAN_POINT('',(0.563819527752574,-0.383935512064804,0.525675710713082));
#189=DIRECTION('',(1.52655665885959E-16,-1.00000000000000,1.11022302462516E-16));
#190=DIRECTION('',(0.0174622355170145,-1.08339664984241E-16,-0.999847523540839));
#191=AXIS2_PLACEMENT_3D('',#188,#189,#190);
#192=CYLINDRICAL_SURFACE('',#191,0.910000000000000);
#193=ADVANCED_FACE('',(#187),#192,.F.);
#194=CARTESIAN_POINT('',(-0.283588325575582,-3.38393551206480,0.0962641780575363));
#195=VERTEX_POINT('',#194);
#196=CARTESIAN_POINT('',(-0.265596254797998,-3.38393551206480,0.104998328796697));
#197=DIRECTION('',(-9.40395480657830E-38,1.00000000000000,-6.12323399573676E-17));
#198=DIRECTION('',(9.83057781684532E-06,-6.12323399544089E-17,-0.999999999951680));
#199=AXIS2_PLACEMENT_3D('',#196,#197,#198);
#200=CIRCLE('',#199,0.0200000000000001);
#201=EDGE_CURVE('',#162,#195,#200,.T.);
#202=ORIENTED_EDGE('',*,*,#201,.T.);
#203=CARTESIAN_POINT('',(-0.283588325575583,2.61606448793520,0.0962641780575356));
#204=VERTEX_POINT('',#203);
#205=CARTESIAN_POINT('',(-0.283588325575583,-0.383935512064804,0.0962641780575359));
#206=DIRECTION('',(1.52655665885959E-16,-1.00000000000000,1.11022302462516E-16));
#207=VECTOR('',#206,1.00000000000000);
#208=LINE('',#205,#207);
#209=EDGE_CURVE('',#204,#195,#208,.T.);
#210=ORIENTED_EDGE('',*,*,#209,.F.);
#211=CARTESIAN_POINT('',(-0.265596254797998,2.61606448793520,0.104998328796696));
#212=DIRECTION('',(9.40395480657830E-38,-1.00000000000000,6.12323399573676E-17));
#213=DIRECTION('',(9.83057781684532E-06,-6.12323399544089E-17,-0.999999999951680));
#214=AXIS2_PLACEMENT_3D('',#211,#212,#213);
#215=CIRCLE('',#214,0.0200000000000001);
#216=EDGE_CURVE('',#204,#171,#215,.T.);
#217=ORIENTED_EDGE('',*,*,#216,.T.);
#218=ORIENTED_EDGE('',*,*,#176,.F.);
#219=EDGE_LOOP('',(#202,#210,#217,#218));
#220=FACE_OUTER_BOUND('',#219,.T.);
#221=CARTESIAN_POINT('',(-0.265596254797998,-0.383935512064804,0.104998328796697));
#222=DIRECTION('',(1.52655665885959E-16,-1.00000000000000,1.11022302462516E-16));
#223=DIRECTION('',(-0.444541330689644,0.00000000000000,0.895758340909355));
#224=AXIS2_PLACEMENT_3D('',#221,#222,#223);
#225=CYLINDRICAL_SURFACE('',#224,0.0200000000000001);
#226=ADVANCED_FACE('',(#220),#225,.T.);
#227=CARTESIAN_POINT('',(-0.365388691767935,-3.38393551206480,0.362106070554731));
#228=VERTEX_POINT('',#227);
#229=CARTESIAN_POINT('',(0.535050894804533,-3.38393551206480,0.493668036689328));
#230=DIRECTION('',(-9.40395480657830E-38,1.00000000000000,-6.12323399573676E-17));
#231=DIRECTION('',(9.83057781935026E-06,-6.12323399544089E-17,-0.999999999951680));
#232=AXIS2_PLACEMENT_3D('',#229,#230,#231);
#233=CIRCLE('',#232,0.910000000000000);
#234=EDGE_CURVE('',#195,#228,#233,.T.);
#235=ORIENTED_EDGE('',*,*,#234,.T.);
#236=CARTESIAN_POINT('',(-0.365388691767936,2.61606448793520,0.362106070554730));
#237=VERTEX_POINT('',#236);
#238=CARTESIAN_POINT('',(-0.365388691767936,-0.383935512064804,0.362106070554731));
#239=DIRECTION('',(-1.52655665885959E-16,1.00000000000000,-1.11022302462516E-16));
#240=VECTOR('',#239,1.00000000000000);
#241=LINE('',#238,#240);
#242=EDGE_CURVE('',#228,#237,#241,.T.);
#243=ORIENTED_EDGE('',*,*,#242,.T.);
#244=CARTESIAN_POINT('',(0.535050894804532,2.61606448793520,0.493668036689327));
#245=DIRECTION('',(9.40395480657830E-38,-1.00000000000000,6.12323399573676E-17));
#246=DIRECTION('',(9.83057781935026E-06,-6.12323399544089E-17,-0.999999999951680));
#247=AXIS2_PLACEMENT_3D('',#244,#245,#246);
#248=CIRCLE('',#247,0.910000000000000);
#249=EDGE_CURVE('',#237,#204,#248,.T.);
#250=ORIENTED_EDGE('',*,*,#249,.T.);
#251=ORIENTED_EDGE('',*,*,#209,.T.);
#252=EDGE_LOOP('',(#235,#243,#250,#251));
#253=FACE_OUTER_BOUND('',#252,.T.);
#254=CARTESIAN_POINT('',(0.535050894804533,-0.383935512064804,0.493668036689327));
#255=DIRECTION('',(1.52655665885959E-16,-1.00000000000000,1.11022302462516E-16));
#256=DIRECTION('',(9.83057781935026E-06,-1.11020801763748E-16,-0.999999999951680));
#257=AXIS2_PLACEMENT_3D('',#254,#255,#256);
#258=CYLINDRICAL_SURFACE('',#257,0.910000000000000);
#259=ADVANCED_FACE('',(#253),#258,.T.);
#260=CARTESIAN_POINT('',(-0.345599007355921,-3.38393551206480,0.384997542336942));
#261=VERTEX_POINT('',#260);
#262=CARTESIAN_POINT('',(-0.345598810744365,-3.38393551206480,0.364997542337909));
#263=DIRECTION('',(0.00000000000000,1.00000000000000,-6.12323399573677E-17));
#264=DIRECTION('',(9.83057781964170E-06,-6.12323399544089E-17,-0.999999999951680));
#265=AXIS2_PLACEMENT_3D('',#262,#263,#264);
#266=CIRCLE('',#265,0.0199999999999999);
#267=EDGE_CURVE('',#228,#261,#266,.T.);
#268=ORIENTED_EDGE('',*,*,#267,.T.);
#269=CARTESIAN_POINT('',(-0.345599007355922,2.61606448793520,0.384997542336942));
#270=VERTEX_POINT('',#269);
#271=CARTESIAN_POINT('',(-0.345599007355922,-0.383935512064804,0.384997542336942));
#272=DIRECTION('',(-1.52655665885959E-16,1.00000000000000,-1.11022302462516E-16));
#273=VECTOR('',#272,1.00000000000000);
#274=LINE('',#271,#273);
#275=EDGE_CURVE('',#261,#270,#274,.T.);
#276=ORIENTED_EDGE('',*,*,#275,.T.);
#277=CARTESIAN_POINT('',(-0.345598810744366,2.61606448793520,0.364997542337908));
#278=DIRECTION('',(0.00000000000000,-1.00000000000000,6.12323399573677E-17));
#279=DIRECTION('',(9.83057781964170E-06,-6.12323399544089E-17,-0.999999999951680));
#280=AXIS2_PLACEMENT_3D('',#277,#278,#279);
#281=CIRCLE('',#280,0.0199999999999999);
#282=EDGE_CURVE('',#270,#237,#281,.T.);
#283=ORIENTED_EDGE('',*,*,#282,.T.);
#284=ORIENTED_EDGE('',*,*,#242,.F.);
#285=EDGE_LOOP('',(#268,#276,#283,#284));
#286=FACE_OUTER_BOUND('',#285,.T.);
#287=CARTESIAN_POINT('',(-0.345598810744365,-0.383935512064804,0.364997542337909));
#288=DIRECTION('',(1.52655665885959E-16,-1.00000000000000,1.11022302462516E-16));
#289=DIRECTION('',(9.83057781964170E-06,-1.11020801763748E-16,-0.999999999951680));
#290=AXIS2_PLACEMENT_3D('',#287,#288,#289);
#291=CYLINDRICAL_SURFACE('',#290,0.0199999999999999);
#292=ADVANCED_FACE('',(#286),#291,.T.);
#293=CARTESIAN_POINT('',(-0.115599007367035,-3.38393551206480,0.384999803369841));
#294=VERTEX_POINT('',#293);
#295=CARTESIAN_POINT('',(-0.345599007355921,-3.38393551206480,0.384997542336942));
#296=DIRECTION('',(0.999999999951680,-2.54340271870775E-53,9.83057781893091E-06));
#297=VECTOR('',#296,1.00000000000000);
#298=LINE('',#295,#297);
#299=EDGE_CURVE('',#261,#294,#298,.T.);
#300=ORIENTED_EDGE('',*,*,#299,.T.);
#301=CARTESIAN_POINT('',(-0.115599007367036,2.61606448793520,0.384999803369840));
#302=VERTEX_POINT('',#301);
#303=CARTESIAN_POINT('',(-0.115599007367035,-0.383935512064804,0.384999803369840));
#304=DIRECTION('',(1.52655665885959E-16,-1.00000000000000,1.11022302462516E-16));
#305=VECTOR('',#304,1.00000000000000);
#306=LINE('',#303,#305);
#307=EDGE_CURVE('',#302,#294,#306,.T.);
#308=ORIENTED_EDGE('',*,*,#307,.F.);
#309=CARTESIAN_POINT('',(-0.345599007355922,2.61606448793520,0.384997542336942));
#310=DIRECTION('',(-0.999999999951680,2.54340271870775E-53,-9.83057781893091E-06));
#311=VECTOR('',#310,1.00000000000000);
#312=LINE('',#309,#311);
#313=EDGE_CURVE('',#302,#270,#312,.T.);
#314=ORIENTED_EDGE('',*,*,#313,.T.);
#315=ORIENTED_EDGE('',*,*,#275,.F.);
#316=EDGE_LOOP('',(#300,#308,#314,#315));
#317=FACE_OUTER_BOUND('',#316,.T.);
#318=CARTESIAN_POINT('',(-0.230599007361479,-0.383935512064804,0.384998672853391));
#319=DIRECTION('',(-9.83057781893091E-06,1.11020801763748E-16,0.999999999951680));
#320=DIRECTION('',(-0.999999999951680,-0.00000000000000,-9.83057781893091E-06));
#321=AXIS2_PLACEMENT_3D('',#318,#319,#320);
#322=PLANE('',#321);
#323=ADVANCED_FACE('',(#317),#322,.T.);
#324=CARTESIAN_POINT('',(-0.0955988107564450,-3.38393551206480,0.364999999982364));
#325=VERTEX_POINT('',#324);
#326=CARTESIAN_POINT('',(-0.115598810755479,-3.38393551206480,0.364999803370807));
#327=DIRECTION('',(9.40395480657830E-38,1.00000000000000,-6.12323399573676E-17));
#328=DIRECTION('',(0.999999999951680,6.01949282984620E-22,9.83057781890617E-06));
#329=AXIS2_PLACEMENT_3D('',#326,#327,#328);
#330=CIRCLE('',#329,0.0200000000000000);
#331=EDGE_CURVE('',#294,#325,#330,.T.);
#332=ORIENTED_EDGE('',*,*,#331,.T.);
#333=CARTESIAN_POINT('',(-0.0955988107564459,2.61606448793520,0.364999999982363));
#334=VERTEX_POINT('',#333);
#335=CARTESIAN_POINT('',(-0.0955988107564454,-0.383935512064804,0.364999999982363));
#336=DIRECTION('',(-1.52655665885959E-16,1.00000000000000,-1.11022302462516E-16));
#337=VECTOR('',#336,1.00000000000000);
#338=LINE('',#335,#337);
#339=EDGE_CURVE('',#325,#334,#338,.T.);
#340=ORIENTED_EDGE('',*,*,#339,.T.);
#341=CARTESIAN_POINT('',(-0.115598810755479,2.61606448793520,0.364999803370807));
#342=DIRECTION('',(-9.40395480657830E-38,-1.00000000000000,6.12323399573676E-17));
#343=DIRECTION('',(0.999999999951680,6.01949282984620E-22,9.83057781890617E-06));
#344=AXIS2_PLACEMENT_3D('',#341,#342,#343);
#345=CIRCLE('',#344,0.0200000000000000);
#346=EDGE_CURVE('',#334,#302,#345,.T.);
#347=ORIENTED_EDGE('',*,*,#346,.T.);
#348=ORIENTED_EDGE('',*,*,#307,.T.);
#349=EDGE_LOOP('',(#332,#340,#347,#348));
#350=FACE_OUTER_BOUND('',#349,.T.);
#351=CARTESIAN_POINT('',(-0.115598810755479,-0.383935512064804,0.364999803370807));
#352=DIRECTION('',(1.52655665885959E-16,-1.00000000000000,1.11022302462516E-16));
#353=DIRECTION('',(-0.707099829884141,0.00000000000000,-0.707113732420619));
#354=AXIS2_PLACEMENT_3D('',#351,#352,#353);
#355=CYLINDRICAL_SURFACE('',#354,0.0200000000000000);
#356=ADVANCED_FACE('',(#350),#355,.T.);
#357=CARTESIAN_POINT('',(-0.0955988107564450,-3.38393551206480,0.364999999982364));
#358=DIRECTION('',(9.83057781939873E-06,-7.60426729195312E-17,-0.999999999951680));
#359=VECTOR('',#358,1.00000000000000);
#360=LINE('',#357,#359);
#361=EDGE_CURVE('',#325,#25,#360,.T.);
#362=ORIENTED_EDGE('',*,*,#361,.T.);
#363=ORIENTED_EDGE('',*,*,#56,.F.);
#364=CARTESIAN_POINT('',(-0.0955988107564459,2.61606448793520,0.364999999982363));
#365=DIRECTION('',(-9.83057781939873E-06,7.60426729195312E-17,0.999999999951680));
#366=VECTOR('',#365,1.00000000000000);
#367=LINE('',#364,#366);
#368=EDGE_CURVE('',#44,#334,#367,.T.);
#369=ORIENTED_EDGE('',*,*,#368,.T.);
#370=ORIENTED_EDGE('',*,*,#339,.F.);
#371=EDGE_LOOP('',(#362,#363,#369,#370));
#372=FACE_OUTER_BOUND('',#371,.T.);
#373=CARTESIAN_POINT('',(-0.0955952225955413,-0.383935512064805,-2.22044604925031E-16));
#374=DIRECTION('',(0.999999999951680,1.52656757291967E-16,9.83057781939873E-06));
#375=DIRECTION('',(-9.83057781939873E-06,7.60426729195312E-17,0.999999999951680));
#376=AXIS2_PLACEMENT_3D('',#373,#374,#375);
#377=PLANE('',#376);
#378=ADVANCED_FACE('',(#372),#377,.T.);
#379=ORIENTED_EDGE('',*,*,#33,.F.);
#380=ORIENTED_EDGE('',*,*,#361,.F.);
#381=ORIENTED_EDGE('',*,*,#331,.F.);
#382=ORIENTED_EDGE('',*,*,#299,.F.);
#383=ORIENTED_EDGE('',*,*,#267,.F.);
#384=ORIENTED_EDGE('',*,*,#234,.F.);
#385=ORIENTED_EDGE('',*,*,#201,.F.);
#386=ORIENTED_EDGE('',*,*,#168,.F.);
#387=ORIENTED_EDGE('',*,*,#136,.F.);
#388=ORIENTED_EDGE('',*,*,#106,.F.);
#389=ORIENTED_EDGE('',*,*,#89,.F.);
#390=EDGE_LOOP('',(#379,#380,#381,#382,#383,#384,#385,#386,#387,#388,#389));
#391=FACE_OUTER_BOUND('',#390,.T.);
#392=CARTESIAN_POINT('',(-0.0955965694117362,-3.38393551206480,0.137002749993380));
#393=DIRECTION('',(1.53919957275055E-16,-1.00000000000000,1.10580889896329E-16));
#394=DIRECTION('',(1.00000000000000,1.53919957275055E-16,-3.98227291424188E-64));
#395=AXIS2_PLACEMENT_3D('',#392,#393,#394);
#396=PLANE('',#395);
#397=ADVANCED_FACE('',(#391),#396,.T.);
#398=ORIENTED_EDGE('',*,*,#346,.F.);
#399=ORIENTED_EDGE('',*,*,#368,.F.);
#400=ORIENTED_EDGE('',*,*,#50,.F.);
#401=ORIENTED_EDGE('',*,*,#81,.F.);
#402=ORIENTED_EDGE('',*,*,#120,.F.);
#403=ORIENTED_EDGE('',*,*,#150,.F.);
#404=ORIENTED_EDGE('',*,*,#183,.F.);
#405=ORIENTED_EDGE('',*,*,#216,.F.);
#406=ORIENTED_EDGE('',*,*,#249,.F.);
#407=ORIENTED_EDGE('',*,*,#282,.F.);
#408=ORIENTED_EDGE('',*,*,#313,.F.);
#409=EDGE_LOOP('',(#398,#399,#400,#401,#402,#403,#404,#405,#406,#407,#408));
#410=FACE_OUTER_BOUND('',#409,.T.);
#411=CARTESIAN_POINT('',(-0.0955965694117371,2.61606448793520,0.137002749993380));
#412=DIRECTION('',(1.53919957275055E-16,-1.00000000000000,1.10580889896329E-16));
#413=DIRECTION('',(1.00000000000000,1.53919957275055E-16,-3.98227291424188E-64));
#414=AXIS2_PLACEMENT_3D('',#411,#412,#413);
#415=PLANE('',#414);
#416=ADVANCED_FACE('',(#410),#415,.F.);
#417=CLOSED_SHELL('',(#65,#98,#129,#160,#193,#226,#259,#292,#323,#356,#378,#397,#416));
#418=MANIFOLD_SOLID_BREP('',#417);
#419=COLOUR_RGB('',1.00000000000000,0.00000000000000,0.00000000000000);
#420=FILL_AREA_STYLE_COLOUR('',#419);
#421=FILL_AREA_STYLE('',(#420));
#422=SURFACE_STYLE_FILL_AREA(#421);
#423=SURFACE_SIDE_STYLE('',(#422));
#424=SURFACE_STYLE_USAGE(.BOTH.,#423);
#425=PRESENTATION_STYLE_ASSIGNMENT((#424));
#426=STYLED_ITEM('',(#425),#418);
#427=ADVANCED_BREP_SHAPE_REPRESENTATION('',(#418,#23),#18);
#428=PRODUCT('','','',(#2));
#429=PRODUCT_DEFINITION_FORMATION_WITH_SPECIFIED_SOURCE('','',#428,.NOT_KNOWN.);
#430=PRODUCT_CATEGORY('part','');
#431=PRODUCT_RELATED_PRODUCT_CATEGORY('detail','',(#428));
#432=PRODUCT_CATEGORY_RELATIONSHIP('','',#430,#431);
#433=PRODUCT_DEFINITION('','',#429,#1);
#434=PRODUCT_DEFINITION_SHAPE('NONE','NONE',#433);
#435=SHAPE_DEFINITION_REPRESENTATION(#434,#427);
#436=PRESENTATION_LAYER_ASSIGNMENT('1','Unnamed [1]',(#418));
ENDSEC;
END-ISO-10303-21;
