ISO-10303-21;
HEADER;
FILE_DESCRIPTION((''),'2;1');
FILE_NAME('C:/Program Files/Kubotek/KeyCreatorPro.2021.SP0/STEP/SG2291.STP', '2021-02-02T21:04:53',(''), (''), 'KCM Version 2.0.6974.6974', 'KeyCreator Pro', '');
FILE_SCHEMA(('AUTOMOTIVE_DESIGN'));
ENDSEC;
DATA;
#1=PRODUCT_DEFINITION_CONTEXT('',#4,'design');
#2=PRODUCT_CONTEXT('',#4,'mechanical');
#3=APPLICATION_PROTOCOL_DEFINITION('International Standard','automotive_design',2001,#4);
#4=APPLICATION_CONTEXT('automotive design');
#10=DIMENSIONAL_EXPONENTS(1.0,0.0,0.0,0.0,0.0,0.0,0.0);
#11=DIMENSIONAL_EXPONENTS(0.0,0.0,0.0,0.0,0.0,0.0,0.0);
#12=(NAMED_UNIT(#10)LENGTH_UNIT()SI_UNIT(.MILLI.,.METRE.));
#13=(NAMED_UNIT(#11)PLANE_ANGLE_UNIT()SI_UNIT($,.RADIAN.));
#14=(NAMED_UNIT(#11)SOLID_ANGLE_UNIT()SI_UNIT($,.STERADIAN.));
#15=LENGTH_MEASURE_WITH_UNIT(LENGTH_MEASURE(25.4),#12);
#16= (CONVERSION_BASED_UNIT('INCH',#15)LENGTH_UNIT()NAMED_UNIT(#10));
#17=UNCERTAINTY_MEASURE_WITH_UNIT(LENGTH_MEASURE(1.0E-006),#16,'','');
#18=(GEOMETRIC_REPRESENTATION_CONTEXT(3)GLOBAL_UNCERTAINTY_ASSIGNED_CONTEXT((#17))GLOBAL_UNIT_ASSIGNED_CONTEXT((#16,#13,#14))REPRESENTATION_CONTEXT('NONE','WORKSPACE'));
#20=CARTESIAN_POINT('',(0.00000000000000,0.00000000000000,0.00000000000000));
#21=DIRECTION('',(0.00000000000000,0.00000000000000,1.00000000000000));
#22=DIRECTION('',(1.00000000000000,0.00000000000000,0.00000000000000));
#23=AXIS2_PLACEMENT_3D('',#20,#21,#22);
#24=CARTESIAN_POINT('',(-0.116331400355102,6.00000000000000,-0.0294449535815762));
#25=VERTEX_POINT('',#24);
#26=CARTESIAN_POINT('',(-0.0877290001655410,6.00000000000000,-0.153230429425169));
#27=VERTEX_POINT('',#26);
#28=CARTESIAN_POINT('',(-0.117456647155402,6.00000000000000,-0.0245751101525825));
#29=DIRECTION('',(0.225132425004110,-5.96603939980563E-17,-0.974328174288196));
#30=VECTOR('',#29,1.00000000000000);
#31=LINE('',#28,#30);
#32=EDGE_CURVE('',#25,#27,#31,.T.);
#33=ORIENTED_EDGE('',*,*,#32,.T.);
#34=CARTESIAN_POINT('',(-0.0877290001655410,-9.38265774637536E-18,-0.153230429425169));
#35=VERTEX_POINT('',#34);
#36=CARTESIAN_POINT('',(-0.0877290001655410,-9.38265774637536E-18,-0.153230429425169));
#37=DIRECTION('',(0.00000000000000,1.00000000000000,-6.12935628178472E-17));
#38=VECTOR('',#37,1.00000000000000);
#39=LINE('',#36,#38);
#40=EDGE_CURVE('',#35,#27,#39,.T.);
#41=ORIENTED_EDGE('',*,*,#40,.F.);
#42=CARTESIAN_POINT('',(-0.116331400355102,-1.80298340773596E-18,-0.0294449535815758));
#43=VERTEX_POINT('',#42);
#44=CARTESIAN_POINT('',(-0.117456647155402,-1.50479149935267E-18,-0.0245751101525822));
#45=DIRECTION('',(0.225132425004110,-5.96603939980563E-17,-0.974328174288196));
#46=VECTOR('',#45,1.00000000000000);
#47=LINE('',#44,#46);
#48=EDGE_CURVE('',#43,#35,#47,.T.);
#49=ORIENTED_EDGE('',*,*,#48,.F.);
#50=CARTESIAN_POINT('',(-0.116331400355102,-1.80298340773596E-18,-0.0294449535815758));
#51=DIRECTION('',(0.00000000000000,1.00000000000000,-6.12935628178472E-17));
#52=VECTOR('',#51,1.00000000000000);
#53=LINE('',#50,#52);
#54=EDGE_CURVE('',#43,#25,#53,.T.);
#55=ORIENTED_EDGE('',*,*,#54,.T.);
#56=EDGE_LOOP('',(#33,#41,#49,#55));
#57=FACE_OUTER_BOUND('',#56,.T.);
#58=CARTESIAN_POINT('',(-0.102030200260322,-5.59282057705567E-18,-0.0913376915033722));
#59=DIRECTION('',(-0.974328174288196,-1.37991684343237E-17,-0.225132425004110));
#60=DIRECTION('',(-0.225132425004110,5.96603939980563E-17,0.974328174288196));
#61=AXIS2_PLACEMENT_3D('',#58,#59,#60);
#62=PLANE('',#61);
#63=ADVANCED_FACE('',(#57),#62,.T.);
#64=CARTESIAN_POINT('',(-0.0477815450197250,6.00000000000000,-0.185000000000001));
#65=VERTEX_POINT('',#64);
#66=CARTESIAN_POINT('',(-0.0477815450197250,6.00000000000000,-0.144000000000000));
#67=DIRECTION('',(0.00000000000000,-1.00000000000000,6.12323399573677E-17));
#68=DIRECTION('',(1.00000000000000,0.00000000000000,0.00000000000000));
#69=AXIS2_PLACEMENT_3D('',#66,#67,#68);
#70=CIRCLE('',#69,0.0410000000000000);
#71=EDGE_CURVE('',#27,#65,#70,.T.);
#72=ORIENTED_EDGE('',*,*,#71,.T.);
#73=CARTESIAN_POINT('',(-0.0477815450197250,-1.13279828921130E-17,-0.185000000000000));
#74=VERTEX_POINT('',#73);
#75=CARTESIAN_POINT('',(-0.0477815450197250,-1.13279828921130E-17,-0.185000000000000));
#76=DIRECTION('',(0.00000000000000,1.00000000000000,-6.12935628178472E-17));
#77=VECTOR('',#76,1.00000000000000);
#78=LINE('',#75,#77);
#79=EDGE_CURVE('',#74,#65,#78,.T.);
#80=ORIENTED_EDGE('',*,*,#79,.F.);
#81=CARTESIAN_POINT('',(-0.0477815450197250,-8.81745695386095E-18,-0.144000000000000));
#82=DIRECTION('',(0.00000000000000,-1.00000000000000,6.12323399573677E-17));
#83=DIRECTION('',(1.00000000000000,0.00000000000000,0.00000000000000));
#84=AXIS2_PLACEMENT_3D('',#81,#82,#83);
#85=CIRCLE('',#84,0.0410000000000000);
#86=EDGE_CURVE('',#35,#74,#85,.T.);
#87=ORIENTED_EDGE('',*,*,#86,.F.);
#88=ORIENTED_EDGE('',*,*,#40,.T.);
#89=EDGE_LOOP('',(#72,#80,#87,#88));
#90=FACE_OUTER_BOUND('',#89,.T.);
#91=CARTESIAN_POINT('',(-0.0477815450197250,-8.81745695386095E-18,-0.144000000000000));
#92=DIRECTION('',(0.00000000000000,1.00000000000000,-6.12935628178472E-17));
#93=DIRECTION('',(1.00000000000000,0.00000000000000,0.00000000000000));
#94=AXIS2_PLACEMENT_3D('',#91,#92,#93);
#95=CYLINDRICAL_SURFACE('',#94,0.0410000000000000);
#96=ADVANCED_FACE('',(#90),#95,.T.);
#97=CARTESIAN_POINT('',(-0.0250000000000004,6.00000000000000,-0.185000000000001));
#98=VERTEX_POINT('',#97);
#99=CARTESIAN_POINT('',(-0.0477815450197250,6.00000000000000,-0.185000000000001));
#100=DIRECTION('',(1.00000000000000,0.00000000000000,0.00000000000000));
#101=VECTOR('',#100,1.00000000000000);
#102=LINE('',#99,#101);
#103=EDGE_CURVE('',#65,#98,#102,.T.);
#104=ORIENTED_EDGE('',*,*,#103,.T.);
#105=CARTESIAN_POINT('',(-0.0250000000000004,-1.13279828921130E-17,-0.185000000000000));
#106=VERTEX_POINT('',#105);
#107=CARTESIAN_POINT('',(-0.0250000000000004,-1.13279828921130E-17,-0.185000000000000));
#108=DIRECTION('',(0.00000000000000,1.00000000000000,-6.12935628178472E-17));
#109=VECTOR('',#108,1.00000000000000);
#110=LINE('',#107,#109);
#111=EDGE_CURVE('',#106,#98,#110,.T.);
#112=ORIENTED_EDGE('',*,*,#111,.F.);
#113=CARTESIAN_POINT('',(-0.0477815450197250,-1.13279828921130E-17,-0.185000000000000));
#114=DIRECTION('',(1.00000000000000,0.00000000000000,0.00000000000000));
#115=VECTOR('',#114,1.00000000000000);
#116=LINE('',#113,#115);
#117=EDGE_CURVE('',#74,#106,#116,.T.);
#118=ORIENTED_EDGE('',*,*,#117,.F.);
#119=ORIENTED_EDGE('',*,*,#79,.T.);
#120=EDGE_LOOP('',(#104,#112,#118,#119));
#121=FACE_OUTER_BOUND('',#120,.T.);
#122=CARTESIAN_POINT('',(-0.0363907725098627,-1.13279828921130E-17,-0.185000000000000));
#123=DIRECTION('',(0.00000000000000,-6.12935628178472E-17,-1.00000000000000));
#124=DIRECTION('',(-1.00000000000000,-0.00000000000000,-0.00000000000000));
#125=AXIS2_PLACEMENT_3D('',#122,#123,#124);
#126=PLANE('',#125);
#127=ADVANCED_FACE('',(#121),#126,.T.);
#128=CARTESIAN_POINT('',(-0.0151017325116343,6.00000000000000,-0.173577220773010));
#129=VERTEX_POINT('',#128);
#130=CARTESIAN_POINT('',(-0.0250000000000004,6.00000000000000,-0.175000000000001));
#131=DIRECTION('',(0.00000000000000,-1.00000000000000,6.12323399573677E-17));
#132=DIRECTION('',(1.00000000000000,0.00000000000000,0.00000000000000));
#133=AXIS2_PLACEMENT_3D('',#130,#131,#132);
#134=CIRCLE('',#133,0.0100000000000000);
#135=EDGE_CURVE('',#98,#129,#134,.T.);
#136=ORIENTED_EDGE('',*,*,#135,.T.);
#137=CARTESIAN_POINT('',(-0.0151017325116343,-1.06285393912280E-17,-0.173577220773010));
#138=VERTEX_POINT('',#137);
#139=CARTESIAN_POINT('',(-0.0151017325116343,-1.06285393912280E-17,-0.173577220773010));
#140=DIRECTION('',(0.00000000000000,1.00000000000000,-6.12935628178472E-17));
#141=VECTOR('',#140,1.00000000000000);
#142=LINE('',#139,#141);
#143=EDGE_CURVE('',#138,#129,#142,.T.);
#144=ORIENTED_EDGE('',*,*,#143,.F.);
#145=CARTESIAN_POINT('',(-0.0250000000000004,-1.07156594925394E-17,-0.175000000000001));
#146=DIRECTION('',(0.00000000000000,-1.00000000000000,6.12323399573677E-17));
#147=DIRECTION('',(1.00000000000000,0.00000000000000,0.00000000000000));
#148=AXIS2_PLACEMENT_3D('',#145,#146,#147);
#149=CIRCLE('',#148,0.0100000000000000);
#150=EDGE_CURVE('',#106,#138,#149,.T.);
#151=ORIENTED_EDGE('',*,*,#150,.F.);
#152=ORIENTED_EDGE('',*,*,#111,.T.);
#153=EDGE_LOOP('',(#136,#144,#151,#152));
#154=FACE_OUTER_BOUND('',#153,.T.);
#155=CARTESIAN_POINT('',(-0.0250000000000004,-1.07156594925394E-17,-0.175000000000001));
#156=DIRECTION('',(0.00000000000000,1.00000000000000,-6.12935628178472E-17));
#157=DIRECTION('',(-0.755737362679349,4.01396113284022E-17,0.654874826703899));
#158=AXIS2_PLACEMENT_3D('',#155,#156,#157);
#159=CYLINDRICAL_SURFACE('',#158,0.0100000000000000);
#160=ADVANCED_FACE('',(#154),#159,.T.);
#161=CARTESIAN_POINT('',(-0.0395930699534652,6.00000000000000,-0.00319111690796384));
#162=VERTEX_POINT('',#161);
#163=CARTESIAN_POINT('',(-0.0395930699534652,6.00000000000000,-0.00319111690796384));
#164=DIRECTION('',(-0.142277922699076,6.06094079836586E-17,0.989826748836601));
#165=VECTOR('',#164,1.00000000000000);
#166=LINE('',#163,#165);
#167=EDGE_CURVE('',#129,#162,#166,.T.);
#168=ORIENTED_EDGE('',*,*,#167,.T.);
#169=CARTESIAN_POINT('',(-0.0395930699534652,-1.95399555352115E-19,-0.00319111690796348));
#170=VERTEX_POINT('',#169);
#171=CARTESIAN_POINT('',(-0.0395930699534652,-1.95399555352115E-19,-0.00319111690796348));
#172=DIRECTION('',(0.00000000000000,1.00000000000000,-6.12935628178472E-17));
#173=VECTOR('',#172,1.00000000000000);
#174=LINE('',#171,#173);
#175=EDGE_CURVE('',#170,#162,#174,.T.);
#176=ORIENTED_EDGE('',*,*,#175,.F.);
#177=CARTESIAN_POINT('',(-0.0395930699534652,-1.95399555352115E-19,-0.00319111690796348));
#178=DIRECTION('',(0.142277922699076,-6.06094079836586E-17,-0.989826748836601));
#179=VECTOR('',#178,1.00000000000000);
#180=LINE('',#177,#179);
#181=EDGE_CURVE('',#170,#138,#180,.T.);
#182=ORIENTED_EDGE('',*,*,#181,.T.);
#183=ORIENTED_EDGE('',*,*,#143,.T.);
#184=EDGE_LOOP('',(#168,#176,#182,#183));
#185=FACE_OUTER_BOUND('',#184,.T.);
#186=CARTESIAN_POINT('',(-0.0273474012325496,-5.41196947329005E-18,-0.0883841688404867));
#187=DIRECTION('',(0.989826748836601,8.72072079254864E-18,0.142277922699076));
#188=DIRECTION('',(0.142277922699076,-6.06094079836586E-17,-0.989826748836601));
#189=AXIS2_PLACEMENT_3D('',#186,#187,#188);
#190=PLANE('',#189);
#191=ADVANCED_FACE('',(#185),#190,.T.);
#192=CARTESIAN_POINT('',(0.0395930699534643,6.00000000000000,-0.00319111690796429));
#193=VERTEX_POINT('',#192);
#194=CARTESIAN_POINT('',(-8.88178419700125E-16,6.00000000000000,0.00249999999999913));
#195=DIRECTION('',(0.00000000000000,1.00000000000000,-6.12323399573677E-17));
#196=DIRECTION('',(1.00000000000000,0.00000000000000,0.00000000000000));
#197=AXIS2_PLACEMENT_3D('',#194,#195,#196);
#198=CIRCLE('',#197,0.0400000000000000);
#199=EDGE_CURVE('',#162,#193,#198,.T.);
#200=ORIENTED_EDGE('',*,*,#199,.T.);
#201=CARTESIAN_POINT('',(0.0395930699534643,-1.95399555352115E-19,-0.00319111690796392));
#202=VERTEX_POINT('',#201);
#203=CARTESIAN_POINT('',(0.0395930699534643,-1.95399555352115E-19,-0.00319111690796392));
#204=DIRECTION('',(0.00000000000000,1.00000000000000,-6.12935628178472E-17));
#205=VECTOR('',#204,1.00000000000000);
#206=LINE('',#203,#205);
#207=EDGE_CURVE('',#202,#193,#206,.T.);
#208=ORIENTED_EDGE('',*,*,#207,.F.);
#209=CARTESIAN_POINT('',(-8.88178419700125E-16,1.53080849893389E-19,0.00249999999999950));
#210=DIRECTION('',(0.00000000000000,-1.00000000000000,6.12323399573677E-17));
#211=DIRECTION('',(1.00000000000000,0.00000000000000,0.00000000000000));
#212=AXIS2_PLACEMENT_3D('',#209,#210,#211);
#213=CIRCLE('',#212,0.0400000000000000);
#214=EDGE_CURVE('',#202,#170,#213,.T.);
#215=ORIENTED_EDGE('',*,*,#214,.T.);
#216=ORIENTED_EDGE('',*,*,#175,.T.);
#217=EDGE_LOOP('',(#200,#208,#215,#216));
#218=FACE_OUTER_BOUND('',#217,.T.);
#219=CARTESIAN_POINT('',(-8.88178419700125E-16,1.53080849893389E-19,0.00249999999999950));
#220=DIRECTION('',(0.00000000000000,1.00000000000000,-6.12935628178472E-17));
#221=DIRECTION('',(0.00000000000000,0.00000000000000,-1.00000000000000));
#222=AXIS2_PLACEMENT_3D('',#219,#220,#221);
#223=CYLINDRICAL_SURFACE('',#222,0.0400000000000000);
#224=ADVANCED_FACE('',(#218),#223,.F.);
#225=CARTESIAN_POINT('',(0.0151017325116326,6.00000000000000,-0.173577220773010));
#226=VERTEX_POINT('',#225);
#227=CARTESIAN_POINT('',(0.0395930699534643,6.00000000000000,-0.00319111690796429));
#228=DIRECTION('',(-0.142277922699082,-6.06094079836587E-17,-0.989826748836600));
#229=VECTOR('',#228,1.00000000000000);
#230=LINE('',#227,#229);
#231=EDGE_CURVE('',#193,#226,#230,.T.);
#232=ORIENTED_EDGE('',*,*,#231,.T.);
#233=CARTESIAN_POINT('',(0.0151017325116326,-1.06285393912280E-17,-0.173577220773010));
#234=VERTEX_POINT('',#233);
#235=CARTESIAN_POINT('',(0.0151017325116326,-1.06285393912280E-17,-0.173577220773010));
#236=DIRECTION('',(0.00000000000000,1.00000000000000,-6.12935628178472E-17));
#237=VECTOR('',#236,1.00000000000000);
#238=LINE('',#235,#237);
#239=EDGE_CURVE('',#234,#226,#238,.T.);
#240=ORIENTED_EDGE('',*,*,#239,.F.);
#241=CARTESIAN_POINT('',(0.0395930699534643,-1.95399555352115E-19,-0.00319111690796392));
#242=DIRECTION('',(-0.142277922699082,-6.06094079836587E-17,-0.989826748836600));
#243=VECTOR('',#242,1.00000000000000);
#244=LINE('',#241,#243);
#245=EDGE_CURVE('',#202,#234,#244,.T.);
#246=ORIENTED_EDGE('',*,*,#245,.F.);
#247=ORIENTED_EDGE('',*,*,#207,.T.);
#248=EDGE_LOOP('',(#232,#240,#246,#247));
#249=FACE_OUTER_BOUND('',#248,.T.);
#250=CARTESIAN_POINT('',(0.0273474012325483,-5.41196947329005E-18,-0.0883841688404869));
#251=DIRECTION('',(-0.989826748836600,8.72072079254898E-18,0.142277922699082));
#252=DIRECTION('',(0.142277922699082,6.06094079836588E-17,0.989826748836600));
#253=AXIS2_PLACEMENT_3D('',#250,#251,#252);
#254=PLANE('',#253);
#255=ADVANCED_FACE('',(#249),#254,.T.);
#256=CARTESIAN_POINT('',(0.0249999999999986,6.00000000000000,-0.185000000000001));
#257=VERTEX_POINT('',#256);
#258=CARTESIAN_POINT('',(0.0249999999999986,6.00000000000000,-0.175000000000001));
#259=DIRECTION('',(0.00000000000000,-1.00000000000000,6.12323399573677E-17));
#260=DIRECTION('',(1.00000000000000,0.00000000000000,0.00000000000000));
#261=AXIS2_PLACEMENT_3D('',#258,#259,#260);
#262=CIRCLE('',#261,0.0100000000000000);
#263=EDGE_CURVE('',#226,#257,#262,.T.);
#264=ORIENTED_EDGE('',*,*,#263,.T.);
#265=CARTESIAN_POINT('',(0.0249999999999986,-1.13279828921130E-17,-0.185000000000000));
#266=VERTEX_POINT('',#265);
#267=CARTESIAN_POINT('',(0.0249999999999986,-1.13279828921130E-17,-0.185000000000000));
#268=DIRECTION('',(0.00000000000000,1.00000000000000,-6.12935628178472E-17));
#269=VECTOR('',#268,1.00000000000000);
#270=LINE('',#267,#269);
#271=EDGE_CURVE('',#266,#257,#270,.T.);
#272=ORIENTED_EDGE('',*,*,#271,.F.);
#273=CARTESIAN_POINT('',(0.0249999999999986,-1.07156594925394E-17,-0.175000000000001));
#274=DIRECTION('',(0.00000000000000,-1.00000000000000,6.12323399573677E-17));
#275=DIRECTION('',(1.00000000000000,0.00000000000000,0.00000000000000));
#276=AXIS2_PLACEMENT_3D('',#273,#274,#275);
#277=CIRCLE('',#276,0.0100000000000000);
#278=EDGE_CURVE('',#234,#266,#277,.T.);
#279=ORIENTED_EDGE('',*,*,#278,.F.);
#280=ORIENTED_EDGE('',*,*,#239,.T.);
#281=EDGE_LOOP('',(#264,#272,#279,#280));
#282=FACE_OUTER_BOUND('',#281,.T.);
#283=CARTESIAN_POINT('',(0.0249999999999986,-1.07156594925394E-17,-0.175000000000001));
#284=DIRECTION('',(0.00000000000000,1.00000000000000,-6.12935628178472E-17));
#285=DIRECTION('',(1.00000000000000,0.00000000000000,0.00000000000000));
#286=AXIS2_PLACEMENT_3D('',#283,#284,#285);
#287=CYLINDRICAL_SURFACE('',#286,0.0100000000000000);
#288=ADVANCED_FACE('',(#282),#287,.T.);
#289=CARTESIAN_POINT('',(0.0477815450197232,6.00000000000000,-0.185000000000001));
#290=VERTEX_POINT('',#289);
#291=CARTESIAN_POINT('',(0.0477815450197232,6.00000000000000,-0.185000000000001));
#292=DIRECTION('',(1.00000000000000,0.00000000000000,0.00000000000000));
#293=VECTOR('',#292,1.00000000000000);
#294=LINE('',#291,#293);
#295=EDGE_CURVE('',#257,#290,#294,.T.);
#296=ORIENTED_EDGE('',*,*,#295,.T.);
#297=CARTESIAN_POINT('',(0.0477815450197232,-1.13279828921130E-17,-0.185000000000000));
#298=VERTEX_POINT('',#297);
#299=CARTESIAN_POINT('',(0.0477815450197232,-1.13279828921130E-17,-0.185000000000000));
#300=DIRECTION('',(0.00000000000000,1.00000000000000,-6.12935628178472E-17));
#301=VECTOR('',#300,1.00000000000000);
#302=LINE('',#299,#301);
#303=EDGE_CURVE('',#298,#290,#302,.T.);
#304=ORIENTED_EDGE('',*,*,#303,.F.);
#305=CARTESIAN_POINT('',(0.0477815450197232,-1.13279828921130E-17,-0.185000000000000));
#306=DIRECTION('',(-1.00000000000000,0.00000000000000,0.00000000000000));
#307=VECTOR('',#306,1.00000000000000);
#308=LINE('',#305,#307);
#309=EDGE_CURVE('',#298,#266,#308,.T.);
#310=ORIENTED_EDGE('',*,*,#309,.T.);
#311=ORIENTED_EDGE('',*,*,#271,.T.);
#312=EDGE_LOOP('',(#296,#304,#310,#311));
#313=FACE_OUTER_BOUND('',#312,.T.);
#314=CARTESIAN_POINT('',(0.0363907725098609,-1.13279828921130E-17,-0.185000000000000));
#315=DIRECTION('',(-0.00000000000000,-6.12935628178472E-17,-1.00000000000000));
#316=DIRECTION('',(-1.00000000000000,0.00000000000000,0.00000000000000));
#317=AXIS2_PLACEMENT_3D('',#314,#315,#316);
#318=PLANE('',#317);
#319=ADVANCED_FACE('',(#313),#318,.T.);
#320=CARTESIAN_POINT('',(0.0877290001655384,6.00000000000000,-0.153230429425171));
#321=VERTEX_POINT('',#320);
#322=CARTESIAN_POINT('',(0.0477815450197223,6.00000000000000,-0.144000000000002));
#323=DIRECTION('',(-0.00000000000000,-1.00000000000000,-0.00000000000000));
#324=DIRECTION('',(-1.00000000000000,0.00000000000000,0.00000000000000));
#325=AXIS2_PLACEMENT_3D('',#322,#323,#324);
#326=CIRCLE('',#325,0.0410000000000000);
#327=EDGE_CURVE('',#290,#321,#326,.T.);
#328=ORIENTED_EDGE('',*,*,#327,.T.);
#329=CARTESIAN_POINT('',(0.0877290001655384,-8.81745695386106E-18,-0.153230429425170));
#330=VERTEX_POINT('',#329);
#331=CARTESIAN_POINT('',(0.0877290001655384,-8.81745695386106E-18,-0.153230429425170));
#332=DIRECTION('',(0.00000000000000,1.00000000000000,-6.12935628178472E-17));
#333=VECTOR('',#332,1.00000000000000);
#334=LINE('',#331,#333);
#335=EDGE_CURVE('',#330,#321,#334,.T.);
#336=ORIENTED_EDGE('',*,*,#335,.F.);
#337=CARTESIAN_POINT('',(0.0477815450197223,-8.81745695386106E-18,-0.144000000000002));
#338=DIRECTION('',(0.00000000000000,1.00000000000000,0.00000000000000));
#339=DIRECTION('',(-1.00000000000000,0.00000000000000,0.00000000000000));
#340=AXIS2_PLACEMENT_3D('',#337,#338,#339);
#341=CIRCLE('',#340,0.0410000000000000);
#342=EDGE_CURVE('',#330,#298,#341,.T.);
#343=ORIENTED_EDGE('',*,*,#342,.T.);
#344=ORIENTED_EDGE('',*,*,#303,.T.);
#345=EDGE_LOOP('',(#328,#336,#343,#344));
#346=FACE_OUTER_BOUND('',#345,.T.);
#347=CARTESIAN_POINT('',(0.0477815450197223,-8.81745695386106E-18,-0.144000000000002));
#348=DIRECTION('',(0.00000000000000,1.00000000000000,-6.12935628178472E-17));
#349=DIRECTION('',(-1.00000000000000,0.00000000000000,0.00000000000000));
#350=AXIS2_PLACEMENT_3D('',#347,#348,#349);
#351=CYLINDRICAL_SURFACE('',#350,0.0410000000000000);
#352=ADVANCED_FACE('',(#346),#351,.T.);
#353=CARTESIAN_POINT('',(0.116331400355088,6.00000000000000,-0.0294449535816283));
#354=VERTEX_POINT('',#353);
#355=CARTESIAN_POINT('',(0.117456647155400,6.00000000000000,-0.0245751101525825));
#356=DIRECTION('',(0.225132425004110,5.96603939980561E-17,0.974328174288196));
#357=VECTOR('',#356,1.00000000000000);
#358=LINE('',#355,#357);
#359=EDGE_CURVE('',#321,#354,#358,.T.);
#360=ORIENTED_EDGE('',*,*,#359,.T.);
#361=CARTESIAN_POINT('',(0.116331400355088,-1.80298340773915E-18,-0.0294449535816280));
#362=VERTEX_POINT('',#361);
#363=CARTESIAN_POINT('',(0.116331400355088,-1.80298340773915E-18,-0.0294449535816280));
#364=DIRECTION('',(0.00000000000000,1.00000000000000,-6.12935628178472E-17));
#365=VECTOR('',#364,1.00000000000000);
#366=LINE('',#363,#365);
#367=EDGE_CURVE('',#362,#354,#366,.T.);
#368=ORIENTED_EDGE('',*,*,#367,.F.);
#369=CARTESIAN_POINT('',(0.117456647155400,-1.50479149935267E-18,-0.0245751101525822));
#370=DIRECTION('',(-0.225132425004110,-5.96603939980561E-17,-0.974328174288196));
#371=VECTOR('',#370,1.00000000000000);
#372=LINE('',#369,#371);
#373=EDGE_CURVE('',#362,#330,#372,.T.);
#374=ORIENTED_EDGE('',*,*,#373,.T.);
#375=ORIENTED_EDGE('',*,*,#335,.T.);
#376=EDGE_LOOP('',(#360,#368,#374,#375));
#377=FACE_OUTER_BOUND('',#376,.T.);
#378=CARTESIAN_POINT('',(0.102030200260314,-5.59282057705731E-18,-0.0913376915033992));
#379=DIRECTION('',(0.974328174288196,-1.37991684343237E-17,-0.225132425004110));
#380=DIRECTION('',(-0.225132425004110,-5.96603939980561E-17,-0.974328174288196));
#381=AXIS2_PLACEMENT_3D('',#378,#379,#380);
#382=PLANE('',#381);
#383=ADVANCED_FACE('',(#377),#382,.T.);
#384=CARTESIAN_POINT('',(-8.88178419700125E-16,6.00000000000000,-8.11850586757146E-16));
#385=DIRECTION('',(0.00000000000000,-1.00000000000000,6.12323399573677E-17));
#386=DIRECTION('',(1.00000000000000,0.00000000000000,0.00000000000000));
#387=AXIS2_PLACEMENT_3D('',#384,#385,#386);
#388=CIRCLE('',#387,0.120000000000000);
#389=EDGE_CURVE('',#354,#25,#388,.T.);
#390=ORIENTED_EDGE('',*,*,#389,.T.);
#391=ORIENTED_EDGE('',*,*,#54,.F.);
#392=CARTESIAN_POINT('',(-8.88178419700125E-16,-2.71926214689378E-32,-4.44089209850063E-16));
#393=DIRECTION('',(0.00000000000000,-1.00000000000000,6.12323399573677E-17));
#394=DIRECTION('',(1.00000000000000,0.00000000000000,0.00000000000000));
#395=AXIS2_PLACEMENT_3D('',#392,#393,#394);
#396=CIRCLE('',#395,0.120000000000000);
#397=EDGE_CURVE('',#362,#43,#396,.T.);
#398=ORIENTED_EDGE('',*,*,#397,.F.);
#399=ORIENTED_EDGE('',*,*,#367,.T.);
#400=EDGE_LOOP('',(#390,#391,#398,#399));
#401=FACE_OUTER_BOUND('',#400,.T.);
#402=CARTESIAN_POINT('',(-8.88178419700125E-16,-2.71926214689378E-32,-4.44089209850063E-16));
#403=DIRECTION('',(0.00000000000000,1.00000000000000,-6.12935628178472E-17));
#404=DIRECTION('',(0.00000000000000,0.00000000000000,-1.00000000000000));
#405=AXIS2_PLACEMENT_3D('',#402,#403,#404);
#406=CYLINDRICAL_SURFACE('',#405,0.120000000000000);
#407=ADVANCED_FACE('',(#401),#406,.T.);
#408=ORIENTED_EDGE('',*,*,#32,.F.);
#409=ORIENTED_EDGE('',*,*,#389,.F.);
#410=ORIENTED_EDGE('',*,*,#359,.F.);
#411=ORIENTED_EDGE('',*,*,#327,.F.);
#412=ORIENTED_EDGE('',*,*,#295,.F.);
#413=ORIENTED_EDGE('',*,*,#263,.F.);
#414=ORIENTED_EDGE('',*,*,#231,.F.);
#415=ORIENTED_EDGE('',*,*,#199,.F.);
#416=ORIENTED_EDGE('',*,*,#167,.F.);
#417=ORIENTED_EDGE('',*,*,#135,.F.);
#418=ORIENTED_EDGE('',*,*,#103,.F.);
#419=ORIENTED_EDGE('',*,*,#71,.F.);
#420=EDGE_LOOP('',(#408,#409,#410,#411,#412,#413,#414,#415,#416,#417,#418,#419));
#421=FACE_OUTER_BOUND('',#420,.T.);
#422=CARTESIAN_POINT('',(-0.0406662989714395,6.00000000000000,-0.185000000000001));
#423=DIRECTION('',(0.00000000000000,-1.00000000000000,6.12323399573676E-17));
#424=DIRECTION('',(1.00000000000000,0.00000000000000,0.00000000000000));
#425=AXIS2_PLACEMENT_3D('',#422,#423,#424);
#426=PLANE('',#425);
#427=ADVANCED_FACE('',(#421),#426,.F.);
#428=ORIENTED_EDGE('',*,*,#397,.T.);
#429=ORIENTED_EDGE('',*,*,#48,.T.);
#430=ORIENTED_EDGE('',*,*,#86,.T.);
#431=ORIENTED_EDGE('',*,*,#117,.T.);
#432=ORIENTED_EDGE('',*,*,#150,.T.);
#433=ORIENTED_EDGE('',*,*,#181,.F.);
#434=ORIENTED_EDGE('',*,*,#214,.F.);
#435=ORIENTED_EDGE('',*,*,#245,.T.);
#436=ORIENTED_EDGE('',*,*,#278,.T.);
#437=ORIENTED_EDGE('',*,*,#309,.F.);
#438=ORIENTED_EDGE('',*,*,#342,.F.);
#439=ORIENTED_EDGE('',*,*,#373,.F.);
#440=EDGE_LOOP('',(#428,#429,#430,#431,#432,#433,#434,#435,#436,#437,#438,#439));
#441=FACE_OUTER_BOUND('',#440,.T.);
#442=CARTESIAN_POINT('',(-0.0406662989714395,-1.13279828921130E-17,-0.185000000000000));
#443=DIRECTION('',(0.00000000000000,-1.00000000000000,6.12323399573676E-17));
#444=DIRECTION('',(1.00000000000000,0.00000000000000,0.00000000000000));
#445=AXIS2_PLACEMENT_3D('',#442,#443,#444);
#446=PLANE('',#445);
#447=ADVANCED_FACE('',(#441),#446,.T.);
#448=CLOSED_SHELL('',(#63,#96,#127,#160,#191,#224,#255,#288,#319,#352,#383,#407,#427,#447));
#449=MANIFOLD_SOLID_BREP('',#448);
#450=COLOUR_RGB('',1.00000000000000,0.00000000000000,0.00000000000000);
#451=FILL_AREA_STYLE_COLOUR('',#450);
#452=FILL_AREA_STYLE('',(#451));
#453=SURFACE_STYLE_FILL_AREA(#452);
#454=SURFACE_SIDE_STYLE('',(#453));
#455=SURFACE_STYLE_USAGE(.BOTH.,#454);
#456=PRESENTATION_STYLE_ASSIGNMENT((#455));
#457=STYLED_ITEM('',(#456),#449);
#458=ADVANCED_BREP_SHAPE_REPRESENTATION('',(#449,#23),#18);
#459=PRODUCT('', '', ' ',(#2));
#460=PRODUCT_DEFINITION_FORMATION_WITH_SPECIFIED_SOURCE (' ', ' ', #459, .NOT_KNOWN.) ;
#461=PRODUCT_CATEGORY('part','') ;
#462=PRODUCT_RELATED_PRODUCT_CATEGORY('detail', ' ', (#459)) ;
#463=PRODUCT_CATEGORY_RELATIONSHIP(' ', ' ', #461, #462);
#464=PRODUCT_DEFINITION('', '', #460, #1);
#465=PRODUCT_DEFINITION_SHAPE('NONE', 'NONE', #464);
#466=SHAPE_DEFINITION_REPRESENTATION(#465, #458);
#467=PRESENTATION_LAYER_ASSIGNMENT('1','Unnamed [1]',(#449));
#468=MECHANICAL_DESIGN_GEOMETRIC_PRESENTATION_REPRESENTATION('',(#457), #18);
ENDSEC;
END-ISO-10303-21;
