ISO-10303-21;
HEADER;
FILE_DESCRIPTION((''),'2;1');
FILE_NAME('C:/Program Files/Kubotek/KeyCreatorPro.2021.SP0/STEP/SG2278.STP', '2021-03-15T20:17:58',(''), (''), 'KCM Version 2.0.6974.6974', 'KeyCreator Pro', '');
FILE_SCHEMA(('AUTOMOTIVE_DESIGN'));
ENDSEC;
DATA;
#1=PRODUCT_DEFINITION_CONTEXT('',#4,'design');
#2=PRODUCT_CONTEXT('',#4,'mechanical');
#3=APPLICATION_PROTOCOL_DEFINITION('International Standard','automotive_design',2001,#4);
#4=APPLICATION_CONTEXT('automotive design');
#10=DIMENSIONAL_EXPONENTS(1.0,0.0,0.0,0.0,0.0,0.0,0.0);
#11=DIMENSIONAL_EXPONENTS(0.0,0.0,0.0,0.0,0.0,0.0,0.0);
#12=(NAMED_UNIT(#10)LENGTH_UNIT()SI_UNIT(.MILLI.,.METRE.));
#13=(NAMED_UNIT(#11)PLANE_ANGLE_UNIT()SI_UNIT($,.RADIAN.));
#14=(NAMED_UNIT(#11)SOLID_ANGLE_UNIT()SI_UNIT($,.STERADIAN.));
#15=LENGTH_MEASURE_WITH_UNIT(LENGTH_MEASURE(25.4),#12);
#16= (CONVERSION_BASED_UNIT('INCH',#15)LENGTH_UNIT()NAMED_UNIT(#10));
#17=UNCERTAINTY_MEASURE_WITH_UNIT(LENGTH_MEASURE(1.0E-006),#16,'','');
#18=(GEOMETRIC_REPRESENTATION_CONTEXT(3)GLOBAL_UNCERTAINTY_ASSIGNED_CONTEXT((#17))GLOBAL_UNIT_ASSIGNED_CONTEXT((#16,#13,#14))REPRESENTATION_CONTEXT('NONE','WORKSPACE'));
#20=CARTESIAN_POINT('',(0.00000000000000,0.00000000000000,0.00000000000000));
#21=DIRECTION('',(0.00000000000000,0.00000000000000,1.00000000000000));
#22=DIRECTION('',(1.00000000000000,0.00000000000000,0.00000000000000));
#23=AXIS2_PLACEMENT_3D('',#20,#21,#22);
#24=CARTESIAN_POINT('',(-0.688110563856156,-0.0509448056869310,0.512637128556930));
#25=VERTEX_POINT('',#24);
#26=CARTESIAN_POINT('',(-0.688110563856156,5.94905519431307,0.512637128556931));
#27=VERTEX_POINT('',#26);
#28=CARTESIAN_POINT('',(-0.688110563856156,-0.0509448056869310,0.512637128556930));
#29=DIRECTION('',(1.85037170770859E-17,1.00000000000000,4.62592926927149E-17));
#30=VECTOR('',#29,1.00000000000000);
#31=LINE('',#28,#30);
#32=EDGE_CURVE('',#25,#27,#31,.T.);
#33=ORIENTED_EDGE('',*,*,#32,.T.);
#34=CARTESIAN_POINT('',(0.0814825303989713,5.94905519431307,0.513055194313065));
#35=VERTEX_POINT('',#34);
#36=CARTESIAN_POINT('',(-0.301998522116084,5.94905519431307,-1.90877186028063));
#37=DIRECTION('',(7.49879891330929E-33,1.00000000000000,6.12323399573677E-17));
#38=DIRECTION('',(-1.00000000000000,0.00000000000000,1.22464679914735E-16));
#39=AXIS2_PLACEMENT_3D('',#36,#37,#38);
#40=CIRCLE('',#39,2.45200000000000);
#41=EDGE_CURVE('',#27,#35,#40,.T.);
#42=ORIENTED_EDGE('',*,*,#41,.T.);
#43=CARTESIAN_POINT('',(0.0814825303989712,-0.0509448056869310,0.513055194313064));
#44=VERTEX_POINT('',#43);
#45=CARTESIAN_POINT('',(0.0814825303989712,-0.0509448056869310,0.513055194313064));
#46=DIRECTION('',(1.85037170770859E-17,1.00000000000000,4.62592926927149E-17));
#47=VECTOR('',#46,1.00000000000000);
#48=LINE('',#45,#47);
#49=EDGE_CURVE('',#44,#35,#48,.T.);
#50=ORIENTED_EDGE('',*,*,#49,.F.);
#51=CARTESIAN_POINT('',(-0.301998522116084,-0.0509448056869309,-1.90877186028063));
#52=DIRECTION('',(-7.49879891330929E-33,-1.00000000000000,-6.12323399573677E-17));
#53=DIRECTION('',(-1.00000000000000,0.00000000000000,1.22464679914735E-16));
#54=AXIS2_PLACEMENT_3D('',#51,#52,#53);
#55=CIRCLE('',#54,2.45200000000000);
#56=EDGE_CURVE('',#44,#25,#55,.T.);
#57=ORIENTED_EDGE('',*,*,#56,.T.);
#58=EDGE_LOOP('',(#33,#42,#50,#57));
#59=FACE_OUTER_BOUND('',#58,.T.);
#60=CARTESIAN_POINT('',(-0.301998522116084,-0.0509448056869309,-1.90877186028063));
#61=DIRECTION('',(1.85037170770859E-17,1.00000000000000,4.62592926927149E-17));
#62=DIRECTION('',(-1.00000000000000,1.85037170770859E-17,1.22464679914735E-16));
#63=AXIS2_PLACEMENT_3D('',#60,#61,#62);
#64=CYLINDRICAL_SURFACE('',#63,2.45200000000000);
#65=ADVANCED_FACE('',(#59),#64,.F.);
#66=ORIENTED_EDGE('',*,*,#49,.T.);
#67=CARTESIAN_POINT('',(0.0407412651994648,5.94905519431307,0.282000000000002));
#68=VERTEX_POINT('',#67);
#69=CARTESIAN_POINT('',(0.0407412651994648,5.94905519431307,0.282000000000002));
#70=DIRECTION('',(-0.173648179358755,5.91501656748573E-17,-0.984807752713894));
#71=VECTOR('',#70,1.00000000000000);
#72=LINE('',#69,#71);
#73=EDGE_CURVE('',#35,#68,#72,.T.);
#74=ORIENTED_EDGE('',*,*,#73,.T.);
#75=CARTESIAN_POINT('',(0.0407412651994647,-0.0509448056869310,0.282000000000002));
#76=VERTEX_POINT('',#75);
#77=CARTESIAN_POINT('',(0.0407412651994647,-0.0509448056869310,0.282000000000002));
#78=DIRECTION('',(1.85037170770859E-17,1.00000000000000,4.62592926927149E-17));
#79=VECTOR('',#78,1.00000000000000);
#80=LINE('',#77,#79);
#81=EDGE_CURVE('',#76,#68,#80,.T.);
#82=ORIENTED_EDGE('',*,*,#81,.F.);
#83=CARTESIAN_POINT('',(0.0407412651994647,-0.0509448056869310,0.282000000000002));
#84=DIRECTION('',(0.173648179358755,-5.91501656748573E-17,0.984807752713894));
#85=VECTOR('',#84,1.00000000000000);
#86=LINE('',#83,#85);
#87=EDGE_CURVE('',#76,#44,#86,.T.);
#88=ORIENTED_EDGE('',*,*,#87,.T.);
#89=EDGE_LOOP('',(#66,#74,#82,#88));
#90=FACE_OUTER_BOUND('',#89,.T.);
#91=CARTESIAN_POINT('',(0.0611118977992179,-0.0509448056869310,0.397527597156533));
#92=DIRECTION('',(-0.984807752713894,1.01897620770250E-17,0.173648179358755));
#93=DIRECTION('',(0.173648179358755,-5.91501656748573E-17,0.984807752713894));
#94=AXIS2_PLACEMENT_3D('',#91,#92,#93);
#95=PLANE('',#94);
#96=ADVANCED_FACE('',(#90),#95,.T.);
#97=ORIENTED_EDGE('',*,*,#81,.T.);
#98=CARTESIAN_POINT('',(0.100254817667923,5.94905519431307,0.331579603392768));
#99=VERTEX_POINT('',#98);
#100=CARTESIAN_POINT('',(0.0411663525050896,5.94905519431307,0.341998494154294));
#101=DIRECTION('',(-1.52025186908582E-32,-1.00000000000000,-6.12323399573677E-17));
#102=DIRECTION('',(-0.994505304848122,-6.41018044868720E-18,0.104686191204684));
#103=AXIS2_PLACEMENT_3D('',#100,#101,#102);
#104=CIRCLE('',#103,0.0600000000000000);
#105=EDGE_CURVE('',#68,#99,#104,.T.);
#106=ORIENTED_EDGE('',*,*,#105,.T.);
#107=CARTESIAN_POINT('',(0.100254817667923,-0.0509448056869310,0.331579603392768));
#108=VERTEX_POINT('',#107);
#109=CARTESIAN_POINT('',(0.100254817667923,-0.0509448056869310,0.331579603392768));
#110=DIRECTION('',(1.85037170770859E-17,1.00000000000000,4.62592926927149E-17));
#111=VECTOR('',#110,1.00000000000000);
#112=LINE('',#109,#111);
#113=EDGE_CURVE('',#108,#99,#112,.T.);
#114=ORIENTED_EDGE('',*,*,#113,.F.);
#115=CARTESIAN_POINT('',(0.0411663525050895,-0.0509448056869310,0.341998494154293));
#116=DIRECTION('',(-1.52025186908582E-32,-1.00000000000000,-6.12323399573677E-17));
#117=DIRECTION('',(-0.994505304848122,-6.41018044868720E-18,0.104686191204684));
#118=AXIS2_PLACEMENT_3D('',#115,#116,#117);
#119=CIRCLE('',#118,0.0600000000000000);
#120=EDGE_CURVE('',#76,#108,#119,.T.);
#121=ORIENTED_EDGE('',*,*,#120,.F.);
#122=EDGE_LOOP('',(#97,#106,#114,#121));
#123=FACE_OUTER_BOUND('',#122,.T.);
#124=CARTESIAN_POINT('',(0.0411663525050895,-0.0509448056869310,0.341998494154293));
#125=DIRECTION('',(1.85037170770859E-17,1.00000000000000,4.62592926927149E-17));
#126=DIRECTION('',(-0.994505304848122,1.35593356327477E-17,0.104686191204684));
#127=AXIS2_PLACEMENT_3D('',#124,#125,#126);
#128=CYLINDRICAL_SURFACE('',#127,0.0600000000000000);
#129=ADVANCED_FACE('',(#123),#128,.T.);
#130=ORIENTED_EDGE('',*,*,#113,.T.);
#131=CARTESIAN_POINT('',(0.130889512770474,5.94905519431307,0.505317591032065));
#132=VERTEX_POINT('',#131);
#133=CARTESIAN_POINT('',(0.100254817667923,5.94905519431307,0.331579603392768));
#134=DIRECTION('',(0.173648179358758,-3.93320804774960E-17,0.984807752713893));
#135=VECTOR('',#134,1.00000000000000);
#136=LINE('',#133,#135);
#137=EDGE_CURVE('',#99,#132,#136,.T.);
#138=ORIENTED_EDGE('',*,*,#137,.T.);
#139=CARTESIAN_POINT('',(0.130889512770474,-0.0509448056869310,0.505317591032064));
#140=VERTEX_POINT('',#139);
#141=CARTESIAN_POINT('',(0.130889512770474,-0.0509448056869310,0.505317591032064));
#142=DIRECTION('',(1.85037170770859E-17,1.00000000000000,4.62592926927149E-17));
#143=VECTOR('',#142,1.00000000000000);
#144=LINE('',#141,#143);
#145=EDGE_CURVE('',#140,#132,#144,.T.);
#146=ORIENTED_EDGE('',*,*,#145,.F.);
#147=CARTESIAN_POINT('',(0.100254817667923,-0.0509448056869310,0.331579603392768));
#148=DIRECTION('',(0.173648179358758,-3.93320804774960E-17,0.984807752713893));
#149=VECTOR('',#148,1.00000000000000);
#150=LINE('',#147,#149);
#151=EDGE_CURVE('',#108,#140,#150,.T.);
#152=ORIENTED_EDGE('',*,*,#151,.F.);
#153=EDGE_LOOP('',(#130,#138,#146,#152));
#154=FACE_OUTER_BOUND('',#153,.T.);
#155=CARTESIAN_POINT('',(0.115572165219199,-0.0509448056869310,0.418448597212416));
#156=DIRECTION('',(0.984807752713893,-1.01897620770249E-17,-0.173648179358758));
#157=DIRECTION('',(-0.173648179358758,3.93320804774960E-17,-0.984807752713893));
#158=AXIS2_PLACEMENT_3D('',#155,#156,#157);
#159=PLANE('',#158);
#160=ADVANCED_FACE('',(#154),#159,.T.);
#161=ORIENTED_EDGE('',*,*,#145,.T.);
#162=CARTESIAN_POINT('',(0.0851290382771559,5.94905519431307,0.563878755041818));
#163=VERTEX_POINT('',#162);
#164=CARTESIAN_POINT('',(0.0816491251347787,5.94905519431307,0.514000000000002));
#165=DIRECTION('',(-4.22423292261497E-18,-1.00000000000000,-6.45332118949023E-17));
#166=DIRECTION('',(-0.787961930825823,4.30631795435336E-17,-0.615723960528776));
#167=AXIS2_PLACEMENT_3D('',#164,#165,#166);
#168=CIRCLE('',#167,0.0500000000000000);
#169=EDGE_CURVE('',#132,#163,#168,.T.);
#170=ORIENTED_EDGE('',*,*,#169,.T.);
#171=CARTESIAN_POINT('',(0.0851290382771557,-0.0509448056869310,0.563878755041818));
#172=VERTEX_POINT('',#171);
#173=CARTESIAN_POINT('',(0.0851290382771557,-0.0509448056869310,0.563878755041818));
#174=DIRECTION('',(1.85037170770859E-17,1.00000000000000,4.62592926927149E-17));
#175=VECTOR('',#174,1.00000000000000);
#176=LINE('',#173,#175);
#177=EDGE_CURVE('',#172,#163,#176,.T.);
#178=ORIENTED_EDGE('',*,*,#177,.F.);
#179=CARTESIAN_POINT('',(0.0816491251347786,-0.0509448056869310,0.514000000000001));
#180=DIRECTION('',(-4.22423292261497E-18,-1.00000000000000,-6.45332118949023E-17));
#181=DIRECTION('',(-0.787961930825823,4.30631795435336E-17,-0.615723960528776));
#182=AXIS2_PLACEMENT_3D('',#179,#180,#181);
#183=CIRCLE('',#182,0.0500000000000000);
#184=EDGE_CURVE('',#140,#172,#183,.T.);
#185=ORIENTED_EDGE('',*,*,#184,.F.);
#186=EDGE_LOOP('',(#161,#170,#178,#185));
#187=FACE_OUTER_BOUND('',#186,.T.);
#188=CARTESIAN_POINT('',(0.0816491251347786,-0.0509448056869310,0.514000000000001));
#189=DIRECTION('',(1.85037170770859E-17,1.00000000000000,4.62592926927149E-17));
#190=DIRECTION('',(-0.787961930825823,4.30631795435336E-17,-0.615723960528776));
#191=AXIS2_PLACEMENT_3D('',#188,#189,#190);
#192=CYLINDRICAL_SURFACE('',#191,0.0500000000000000);
#193=ADVANCED_FACE('',(#187),#192,.T.);
#194=ORIENTED_EDGE('',*,*,#177,.T.);
#195=CARTESIAN_POINT('',(-0.688350874865252,5.94905519431307,0.563999999999997));
#196=VERTEX_POINT('',#195);
#197=CARTESIAN_POINT('',(-0.301998522116084,5.94905519431307,-1.90877186028063));
#198=DIRECTION('',(-7.49879891330928E-33,-1.00000000000000,-6.12323399573676E-17));
#199=DIRECTION('',(-1.00000000000000,0.00000000000000,1.22464679914735E-16));
#200=AXIS2_PLACEMENT_3D('',#197,#198,#199);
#201=CIRCLE('',#200,2.50277222564709);
#202=EDGE_CURVE('',#163,#196,#201,.T.);
#203=ORIENTED_EDGE('',*,*,#202,.T.);
#204=CARTESIAN_POINT('',(-0.688350874865252,-0.0509448056869310,0.563999999999997));
#205=VERTEX_POINT('',#204);
#206=CARTESIAN_POINT('',(-0.688350874865252,-0.0509448056869310,0.563999999999997));
#207=DIRECTION('',(1.85037170770859E-17,1.00000000000000,4.62592926927149E-17));
#208=VECTOR('',#207,1.00000000000000);
#209=LINE('',#206,#208);
#210=EDGE_CURVE('',#205,#196,#209,.T.);
#211=ORIENTED_EDGE('',*,*,#210,.F.);
#212=CARTESIAN_POINT('',(-0.301998522116084,-0.0509448056869309,-1.90877186028063));
#213=DIRECTION('',(-7.49879891330928E-33,-1.00000000000000,-6.12323399573676E-17));
#214=DIRECTION('',(-1.00000000000000,0.00000000000000,1.22464679914735E-16));
#215=AXIS2_PLACEMENT_3D('',#212,#213,#214);
#216=CIRCLE('',#215,2.50277222564709);
#217=EDGE_CURVE('',#172,#205,#216,.T.);
#218=ORIENTED_EDGE('',*,*,#217,.F.);
#219=EDGE_LOOP('',(#194,#203,#211,#218));
#220=FACE_OUTER_BOUND('',#219,.T.);
#221=CARTESIAN_POINT('',(-0.301998522116084,-0.0509448056869309,-1.90877186028063));
#222=DIRECTION('',(1.85037170770859E-17,1.00000000000000,4.62592926927149E-17));
#223=DIRECTION('',(-1.00000000000000,1.85037170770859E-17,1.22464679914735E-16));
#224=AXIS2_PLACEMENT_3D('',#221,#222,#223);
#225=CYLINDRICAL_SURFACE('',#224,2.50277222564709);
#226=ADVANCED_FACE('',(#220),#225,.T.);
#227=ORIENTED_EDGE('',*,*,#210,.T.);
#228=CARTESIAN_POINT('',(-0.737591262500915,5.94905519431307,0.505317591032064));
#229=VERTEX_POINT('',#228);
#230=CARTESIAN_POINT('',(-0.688350874865221,5.94905519431307,0.514000000000002));
#231=DIRECTION('',(-1.82312134434414E-17,-1.00000000000000,-4.59345355077574E-17));
#232=DIRECTION('',(0.766044443671310,1.55602304911228E-17,-0.642787609028296));
#233=AXIS2_PLACEMENT_3D('',#230,#231,#232);
#234=CIRCLE('',#233,0.0500000000000000);
#235=EDGE_CURVE('',#196,#229,#234,.T.);
#236=ORIENTED_EDGE('',*,*,#235,.T.);
#237=CARTESIAN_POINT('',(-0.737591262500915,-0.0509448056869310,0.505317591032064));
#238=VERTEX_POINT('',#237);
#239=CARTESIAN_POINT('',(-0.737591262500915,-0.0509448056869310,0.505317591032064));
#240=DIRECTION('',(1.85037170770859E-17,1.00000000000000,4.62592926927149E-17));
#241=VECTOR('',#240,1.00000000000000);
#242=LINE('',#239,#241);
#243=EDGE_CURVE('',#238,#229,#242,.T.);
#244=ORIENTED_EDGE('',*,*,#243,.F.);
#245=CARTESIAN_POINT('',(-0.688350874865221,-0.0509448056869310,0.514000000000002));
#246=DIRECTION('',(1.82312134434414E-17,1.00000000000000,4.59345355077574E-17));
#247=DIRECTION('',(0.766044443671310,1.55602304911228E-17,-0.642787609028296));
#248=AXIS2_PLACEMENT_3D('',#245,#246,#247);
#249=CIRCLE('',#248,0.0500000000000000);
#250=EDGE_CURVE('',#238,#205,#249,.T.);
#251=ORIENTED_EDGE('',*,*,#250,.T.);
#252=EDGE_LOOP('',(#227,#236,#244,#251));
#253=FACE_OUTER_BOUND('',#252,.T.);
#254=CARTESIAN_POINT('',(-0.688350874865221,-0.0509448056869310,0.514000000000002));
#255=DIRECTION('',(1.85037170770859E-17,1.00000000000000,4.62592926927149E-17));
#256=DIRECTION('',(0.766044443671310,1.55602304911228E-17,-0.642787609028296));
#257=AXIS2_PLACEMENT_3D('',#254,#255,#256);
#258=CYLINDRICAL_SURFACE('',#257,0.0500000000000000);
#259=ADVANCED_FACE('',(#253),#258,.T.);
#260=ORIENTED_EDGE('',*,*,#243,.T.);
#261=CARTESIAN_POINT('',(-0.706956567398366,5.94905519431307,0.331579603392768));
#262=VERTEX_POINT('',#261);
#263=CARTESIAN_POINT('',(-0.706956567398366,5.94905519431307,0.331579603392768));
#264=DIRECTION('',(0.173648179358748,7.86641609549920E-17,-0.984807752713895));
#265=VECTOR('',#264,1.00000000000000);
#266=LINE('',#263,#265);
#267=EDGE_CURVE('',#229,#262,#266,.T.);
#268=ORIENTED_EDGE('',*,*,#267,.T.);
#269=CARTESIAN_POINT('',(-0.706956567398366,-0.0509448056869310,0.331579603392768));
#270=VERTEX_POINT('',#269);
#271=CARTESIAN_POINT('',(-0.706956567398366,-0.0509448056869310,0.331579603392768));
#272=DIRECTION('',(1.85037170770859E-17,1.00000000000000,4.62592926927149E-17));
#273=VECTOR('',#272,1.00000000000000);
#274=LINE('',#271,#273);
#275=EDGE_CURVE('',#270,#262,#274,.T.);
#276=ORIENTED_EDGE('',*,*,#275,.F.);
#277=CARTESIAN_POINT('',(-0.706956567398366,-0.0509448056869310,0.331579603392768));
#278=DIRECTION('',(-0.173648179358748,-7.86641609549920E-17,0.984807752713895));
#279=VECTOR('',#278,1.00000000000000);
#280=LINE('',#277,#279);
#281=EDGE_CURVE('',#270,#238,#280,.T.);
#282=ORIENTED_EDGE('',*,*,#281,.T.);
#283=EDGE_LOOP('',(#260,#268,#276,#282));
#284=FACE_OUTER_BOUND('',#283,.T.);
#285=CARTESIAN_POINT('',(-0.722273914949640,-0.0509448056869310,0.418448597212416));
#286=DIRECTION('',(-0.984807752713895,2.62554459860521E-17,-0.173648179358748));
#287=DIRECTION('',(-0.173648179358748,-7.86641609549920E-17,0.984807752713895));
#288=AXIS2_PLACEMENT_3D('',#285,#286,#287);
#289=PLANE('',#288);
#290=ADVANCED_FACE('',(#284),#289,.T.);
#291=ORIENTED_EDGE('',*,*,#275,.T.);
#292=CARTESIAN_POINT('',(-0.647443014929907,5.94905519431307,0.282000000000001));
#293=VERTEX_POINT('',#292);
#294=CARTESIAN_POINT('',(-0.647868102235531,5.94905519431307,0.341998494154293));
#295=DIRECTION('',(-9.80991484657398E-33,-1.00000000000000,-6.12323399573677E-17));
#296=DIRECTION('',(0.994505304848123,-6.41018044868678E-18,0.104686191204677));
#297=AXIS2_PLACEMENT_3D('',#294,#295,#296);
#298=CIRCLE('',#297,0.0599999999999990);
#299=EDGE_CURVE('',#262,#293,#298,.T.);
#300=ORIENTED_EDGE('',*,*,#299,.T.);
#301=CARTESIAN_POINT('',(-0.647443014929908,-0.0509448056869310,0.282000000000001));
#302=VERTEX_POINT('',#301);
#303=CARTESIAN_POINT('',(-0.647443014929908,-0.0509448056869310,0.282000000000001));
#304=DIRECTION('',(1.85037170770859E-17,1.00000000000000,4.62592926927149E-17));
#305=VECTOR('',#304,1.00000000000000);
#306=LINE('',#303,#305);
#307=EDGE_CURVE('',#302,#293,#306,.T.);
#308=ORIENTED_EDGE('',*,*,#307,.F.);
#309=CARTESIAN_POINT('',(-0.647868102235531,-0.0509448056869310,0.341998494154292));
#310=DIRECTION('',(9.80991484657398E-33,1.00000000000000,6.12323399573677E-17));
#311=DIRECTION('',(0.994505304848123,-6.41018044868678E-18,0.104686191204677));
#312=AXIS2_PLACEMENT_3D('',#309,#310,#311);
#313=CIRCLE('',#312,0.0599999999999990);
#314=EDGE_CURVE('',#302,#270,#313,.T.);
#315=ORIENTED_EDGE('',*,*,#314,.T.);
#316=EDGE_LOOP('',(#291,#300,#308,#315));
#317=FACE_OUTER_BOUND('',#316,.T.);
#318=CARTESIAN_POINT('',(-0.647868102235531,-0.0509448056869310,0.341998494154292));
#319=DIRECTION('',(1.85037170770859E-17,1.00000000000000,4.62592926927149E-17));
#320=DIRECTION('',(0.994505304848123,-2.32447539523934E-17,0.104686191204677));
#321=AXIS2_PLACEMENT_3D('',#318,#319,#320);
#322=CYLINDRICAL_SURFACE('',#321,0.0599999999999990);
#323=ADVANCED_FACE('',(#317),#322,.T.);
#324=ORIENTED_EDGE('',*,*,#307,.T.);
#325=CARTESIAN_POINT('',(-0.647443014929907,5.94905519431307,0.282000000000001));
#326=DIRECTION('',(-0.173648179358752,-5.92573845727556E-17,0.984807752713894));
#327=VECTOR('',#326,1.00000000000000);
#328=LINE('',#325,#327);
#329=EDGE_CURVE('',#293,#27,#328,.T.);
#330=ORIENTED_EDGE('',*,*,#329,.T.);
#331=ORIENTED_EDGE('',*,*,#32,.F.);
#332=CARTESIAN_POINT('',(-0.647443014929908,-0.0509448056869310,0.282000000000001));
#333=DIRECTION('',(-0.173648179358752,-5.92573845727556E-17,0.984807752713894));
#334=VECTOR('',#333,1.00000000000000);
#335=LINE('',#332,#334);
#336=EDGE_CURVE('',#302,#25,#335,.T.);
#337=ORIENTED_EDGE('',*,*,#336,.F.);
#338=EDGE_LOOP('',(#324,#330,#331,#337));
#339=FACE_OUTER_BOUND('',#338,.T.);
#340=CARTESIAN_POINT('',(-0.667776789393032,-0.0509448056869310,0.397318564278466));
#341=DIRECTION('',(0.984807752713894,-2.62554459860523E-17,0.173648179358752));
#342=DIRECTION('',(0.173648179358752,5.92573845727556E-17,-0.984807752713894));
#343=AXIS2_PLACEMENT_3D('',#340,#341,#342);
#344=PLANE('',#343);
#345=ADVANCED_FACE('',(#339),#344,.T.);
#346=ORIENTED_EDGE('',*,*,#73,.F.);
#347=ORIENTED_EDGE('',*,*,#41,.F.);
#348=ORIENTED_EDGE('',*,*,#329,.F.);
#349=ORIENTED_EDGE('',*,*,#299,.F.);
#350=ORIENTED_EDGE('',*,*,#267,.F.);
#351=ORIENTED_EDGE('',*,*,#235,.F.);
#352=ORIENTED_EDGE('',*,*,#202,.F.);
#353=ORIENTED_EDGE('',*,*,#169,.F.);
#354=ORIENTED_EDGE('',*,*,#137,.F.);
#355=ORIENTED_EDGE('',*,*,#105,.F.);
#356=EDGE_LOOP('',(#346,#347,#348,#349,#350,#351,#352,#353,#354,#355));
#357=FACE_OUTER_BOUND('',#356,.T.);
#358=CARTESIAN_POINT('',(-0.660144507148298,5.94905519431307,0.354033741176544));
#359=DIRECTION('',(-2.74096515171143E-17,-1.00000000000000,-4.85830340691094E-17));
#360=DIRECTION('',(-1.00000000000000,2.74096515171143E-17,1.22464679914735E-16));
#361=AXIS2_PLACEMENT_3D('',#358,#359,#360);
#362=PLANE('',#361);
#363=ADVANCED_FACE('',(#357),#362,.F.);
#364=ORIENTED_EDGE('',*,*,#314,.F.);
#365=ORIENTED_EDGE('',*,*,#336,.T.);
#366=ORIENTED_EDGE('',*,*,#56,.F.);
#367=ORIENTED_EDGE('',*,*,#87,.F.);
#368=ORIENTED_EDGE('',*,*,#120,.T.);
#369=ORIENTED_EDGE('',*,*,#151,.T.);
#370=ORIENTED_EDGE('',*,*,#184,.T.);
#371=ORIENTED_EDGE('',*,*,#217,.T.);
#372=ORIENTED_EDGE('',*,*,#250,.F.);
#373=ORIENTED_EDGE('',*,*,#281,.F.);
#374=EDGE_LOOP('',(#364,#365,#366,#367,#368,#369,#370,#371,#372,#373));
#375=FACE_OUTER_BOUND('',#374,.T.);
#376=CARTESIAN_POINT('',(-0.660144507148298,-0.0509448056869310,0.354033741176544));
#377=DIRECTION('',(-2.74096515171143E-17,-1.00000000000000,-4.85830340691094E-17));
#378=DIRECTION('',(-1.00000000000000,2.74096515171143E-17,1.22464679914735E-16));
#379=AXIS2_PLACEMENT_3D('',#376,#377,#378);
#380=PLANE('',#379);
#381=ADVANCED_FACE('',(#375),#380,.T.);
#382=CLOSED_SHELL('',(#65,#96,#129,#160,#193,#226,#259,#290,#323,#345,#363,#381));
#383=MANIFOLD_SOLID_BREP('',#382);
#384=COLOUR_RGB('',1.00000000000000,0.00000000000000,0.00000000000000);
#385=FILL_AREA_STYLE_COLOUR('',#384);
#386=FILL_AREA_STYLE('',(#385));
#387=SURFACE_STYLE_FILL_AREA(#386);
#388=SURFACE_SIDE_STYLE('',(#387));
#389=SURFACE_STYLE_USAGE(.BOTH.,#388);
#390=PRESENTATION_STYLE_ASSIGNMENT((#389));
#391=STYLED_ITEM('',(#390),#383);
#392=ADVANCED_BREP_SHAPE_REPRESENTATION('',(#383,#23),#18);
#393=PRODUCT('', '', ' ',(#2));
#394=PRODUCT_DEFINITION_FORMATION_WITH_SPECIFIED_SOURCE (' ', ' ', #393, .NOT_KNOWN.) ;
#395=PRODUCT_CATEGORY('part','') ;
#396=PRODUCT_RELATED_PRODUCT_CATEGORY('detail', ' ', (#393)) ;
#397=PRODUCT_CATEGORY_RELATIONSHIP(' ', ' ', #395, #396);
#398=PRODUCT_DEFINITION('', '', #394, #1);
#399=PRODUCT_DEFINITION_SHAPE('NONE', 'NONE', #398);
#400=SHAPE_DEFINITION_REPRESENTATION(#399, #392);
#401=PRESENTATION_LAYER_ASSIGNMENT('1','Unnamed [1]',(#383));
#402=MECHANICAL_DESIGN_GEOMETRIC_PRESENTATION_REPRESENTATION('',(#391), #18);
ENDSEC;
END-ISO-10303-21;
