ISO-10303-21;
HEADER;
FILE_DESCRIPTION((''),'2;1');
FILE_NAME('C:/Program Files/Kubotek/KeyCreatorPro.2021.SP0/STEP/SG2245.STP', '2021-02-15T18:18:18',(''), (''), 'KCM Version 2.0.6974.6974', 'KeyCreator Pro', '');
FILE_SCHEMA(('AUTOMOTIVE_DESIGN'));
ENDSEC;
DATA;
#1=PRODUCT_DEFINITION_CONTEXT('',#4,'design');
#2=PRODUCT_CONTEXT('',#4,'mechanical');
#3=APPLICATION_PROTOCOL_DEFINITION('International Standard','automotive_design',2001,#4);
#4=APPLICATION_CONTEXT('automotive design');
#10=DIMENSIONAL_EXPONENTS(1.0,0.0,0.0,0.0,0.0,0.0,0.0);
#11=DIMENSIONAL_EXPONENTS(0.0,0.0,0.0,0.0,0.0,0.0,0.0);
#12=(NAMED_UNIT(#10)LENGTH_UNIT()SI_UNIT(.MILLI.,.METRE.));
#13=(NAMED_UNIT(#11)PLANE_ANGLE_UNIT()SI_UNIT($,.RADIAN.));
#14=(NAMED_UNIT(#11)SOLID_ANGLE_UNIT()SI_UNIT($,.STERADIAN.));
#15=LENGTH_MEASURE_WITH_UNIT(LENGTH_MEASURE(25.4),#12);
#16= (CONVERSION_BASED_UNIT('INCH',#15)LENGTH_UNIT()NAMED_UNIT(#10));
#17=UNCERTAINTY_MEASURE_WITH_UNIT(LENGTH_MEASURE(1.0E-006),#16,'','');
#18=(GEOMETRIC_REPRESENTATION_CONTEXT(3)GLOBAL_UNCERTAINTY_ASSIGNED_CONTEXT((#17))GLOBAL_UNIT_ASSIGNED_CONTEXT((#16,#13,#14))REPRESENTATION_CONTEXT('NONE','WORKSPACE'));
#20=CARTESIAN_POINT('',(0.00000000000000,0.00000000000000,0.00000000000000));
#21=DIRECTION('',(0.00000000000000,0.00000000000000,1.00000000000000));
#22=DIRECTION('',(1.00000000000000,0.00000000000000,0.00000000000000));
#23=AXIS2_PLACEMENT_3D('',#20,#21,#22);
#24=CARTESIAN_POINT('',(0.00000000000000,7.01000000000000,-0.970000000000000));
#25=VERTEX_POINT('',#24);
#26=CARTESIAN_POINT('',(0.00000000000000,7.01000000000000,0.970000000000000));
#27=VERTEX_POINT('',#26);
#28=CARTESIAN_POINT('',(0.00000000000000,7.01000000000000,0.970000000000000));
#29=DIRECTION('',(0.00000000000000,0.00000000000000,1.00000000000000));
#30=VECTOR('',#29,1.00000000000000);
#31=LINE('',#28,#30);
#32=EDGE_CURVE('',#25,#27,#31,.T.);
#33=ORIENTED_EDGE('',*,*,#32,.T.);
#34=CARTESIAN_POINT('',(0.00000000000000,1.01000000000000,0.970000000000000));
#35=VERTEX_POINT('',#34);
#36=CARTESIAN_POINT('',(0.00000000000000,1.01000000000000,0.970000000000000));
#37=DIRECTION('',(0.00000000000000,1.00000000000000,0.00000000000000));
#38=VECTOR('',#37,1.00000000000000);
#39=LINE('',#36,#38);
#40=EDGE_CURVE('',#35,#27,#39,.T.);
#41=ORIENTED_EDGE('',*,*,#40,.F.);
#42=CARTESIAN_POINT('',(0.00000000000000,1.01000000000000,-0.970000000000000));
#43=VERTEX_POINT('',#42);
#44=CARTESIAN_POINT('',(0.00000000000000,1.01000000000000,0.970000000000000));
#45=DIRECTION('',(0.00000000000000,0.00000000000000,-1.00000000000000));
#46=VECTOR('',#45,1.00000000000000);
#47=LINE('',#44,#46);
#48=EDGE_CURVE('',#35,#43,#47,.T.);
#49=ORIENTED_EDGE('',*,*,#48,.T.);
#50=CARTESIAN_POINT('',(0.00000000000000,1.01000000000000,-0.970000000000000));
#51=DIRECTION('',(0.00000000000000,1.00000000000000,0.00000000000000));
#52=VECTOR('',#51,1.00000000000000);
#53=LINE('',#50,#52);
#54=EDGE_CURVE('',#43,#25,#53,.T.);
#55=ORIENTED_EDGE('',*,*,#54,.T.);
#56=EDGE_LOOP('',(#33,#41,#49,#55));
#57=FACE_OUTER_BOUND('',#56,.T.);
#58=CARTESIAN_POINT('',(0.00000000000000,1.01000000000000,-2.22044604925031E-16));
#59=DIRECTION('',(1.00000000000000,-0.00000000000000,0.00000000000000));
#60=DIRECTION('',(0.00000000000000,0.00000000000000,-1.00000000000000));
#61=AXIS2_PLACEMENT_3D('',#58,#59,#60);
#62=PLANE('',#61);
#63=ADVANCED_FACE('',(#57),#62,.T.);
#64=CARTESIAN_POINT('',(-0.0400000000000000,7.01000000000000,0.970000000000000));
#65=VERTEX_POINT('',#64);
#66=CARTESIAN_POINT('',(-0.0200000000000000,7.01000000000000,0.970000000000000));
#67=DIRECTION('',(0.00000000000000,-1.00000000000000,6.12323399573677E-17));
#68=DIRECTION('',(1.00000000000000,0.00000000000000,0.00000000000000));
#69=AXIS2_PLACEMENT_3D('',#66,#67,#68);
#70=CIRCLE('',#69,0.0200000000000000);
#71=EDGE_CURVE('',#27,#65,#70,.T.);
#72=ORIENTED_EDGE('',*,*,#71,.T.);
#73=CARTESIAN_POINT('',(-0.0400000000000000,1.01000000000000,0.970000000000000));
#74=VERTEX_POINT('',#73);
#75=CARTESIAN_POINT('',(-0.0400000000000000,1.01000000000000,0.970000000000000));
#76=DIRECTION('',(0.00000000000000,1.00000000000000,0.00000000000000));
#77=VECTOR('',#76,1.00000000000000);
#78=LINE('',#75,#77);
#79=EDGE_CURVE('',#74,#65,#78,.T.);
#80=ORIENTED_EDGE('',*,*,#79,.F.);
#81=CARTESIAN_POINT('',(-0.0200000000000000,1.01000000000000,0.970000000000000));
#82=DIRECTION('',(0.00000000000000,-1.00000000000000,6.12323399573677E-17));
#83=DIRECTION('',(1.00000000000000,0.00000000000000,0.00000000000000));
#84=AXIS2_PLACEMENT_3D('',#81,#82,#83);
#85=CIRCLE('',#84,0.0200000000000000);
#86=EDGE_CURVE('',#35,#74,#85,.T.);
#87=ORIENTED_EDGE('',*,*,#86,.F.);
#88=ORIENTED_EDGE('',*,*,#40,.T.);
#89=EDGE_LOOP('',(#72,#80,#87,#88));
#90=FACE_OUTER_BOUND('',#89,.T.);
#91=CARTESIAN_POINT('',(-0.0200000000000000,1.01000000000000,0.970000000000000));
#92=DIRECTION('',(0.00000000000000,1.00000000000000,0.00000000000000));
#93=DIRECTION('',(0.00000000000000,0.00000000000000,-1.00000000000000));
#94=AXIS2_PLACEMENT_3D('',#91,#92,#93);
#95=CYLINDRICAL_SURFACE('',#94,0.0200000000000000);
#96=ADVANCED_FACE('',(#90),#95,.T.);
#97=CARTESIAN_POINT('',(-0.0400000000000000,7.01000000000000,-0.970000000000000));
#98=VERTEX_POINT('',#97);
#99=CARTESIAN_POINT('',(-0.0400000000000000,7.01000000000000,0.970000000000000));
#100=DIRECTION('',(0.00000000000000,0.00000000000000,-1.00000000000000));
#101=VECTOR('',#100,1.00000000000000);
#102=LINE('',#99,#101);
#103=EDGE_CURVE('',#65,#98,#102,.T.);
#104=ORIENTED_EDGE('',*,*,#103,.T.);
#105=CARTESIAN_POINT('',(-0.0400000000000000,1.01000000000000,-0.970000000000000));
#106=VERTEX_POINT('',#105);
#107=CARTESIAN_POINT('',(-0.0400000000000000,1.01000000000000,-0.970000000000000));
#108=DIRECTION('',(0.00000000000000,1.00000000000000,0.00000000000000));
#109=VECTOR('',#108,1.00000000000000);
#110=LINE('',#107,#109);
#111=EDGE_CURVE('',#106,#98,#110,.T.);
#112=ORIENTED_EDGE('',*,*,#111,.F.);
#113=CARTESIAN_POINT('',(-0.0400000000000000,1.01000000000000,0.970000000000000));
#114=DIRECTION('',(0.00000000000000,0.00000000000000,-1.00000000000000));
#115=VECTOR('',#114,1.00000000000000);
#116=LINE('',#113,#115);
#117=EDGE_CURVE('',#74,#106,#116,.T.);
#118=ORIENTED_EDGE('',*,*,#117,.F.);
#119=ORIENTED_EDGE('',*,*,#79,.T.);
#120=EDGE_LOOP('',(#104,#112,#118,#119));
#121=FACE_OUTER_BOUND('',#120,.T.);
#122=CARTESIAN_POINT('',(-0.0400000000000000,1.01000000000000,-2.22044604925031E-16));
#123=DIRECTION('',(-1.00000000000000,0.00000000000000,0.00000000000000));
#124=DIRECTION('',(-0.00000000000000,-0.00000000000000,1.00000000000000));
#125=AXIS2_PLACEMENT_3D('',#122,#123,#124);
#126=PLANE('',#125);
#127=ADVANCED_FACE('',(#121),#126,.T.);
#128=CARTESIAN_POINT('',(0.00000000000000,7.01000000000000,-1.01000000000000));
#129=VERTEX_POINT('',#128);
#130=CARTESIAN_POINT('',(0.00000000000000,7.01000000000000,-0.970000000000000));
#131=DIRECTION('',(0.00000000000000,-1.00000000000000,6.12323399573677E-17));
#132=DIRECTION('',(1.00000000000000,0.00000000000000,0.00000000000000));
#133=AXIS2_PLACEMENT_3D('',#130,#131,#132);
#134=CIRCLE('',#133,0.0400000000000000);
#135=EDGE_CURVE('',#98,#129,#134,.T.);
#136=ORIENTED_EDGE('',*,*,#135,.T.);
#137=CARTESIAN_POINT('',(0.00000000000000,1.01000000000000,-1.01000000000000));
#138=VERTEX_POINT('',#137);
#139=CARTESIAN_POINT('',(0.00000000000000,1.01000000000000,-1.01000000000000));
#140=DIRECTION('',(0.00000000000000,1.00000000000000,0.00000000000000));
#141=VECTOR('',#140,1.00000000000000);
#142=LINE('',#139,#141);
#143=EDGE_CURVE('',#138,#129,#142,.T.);
#144=ORIENTED_EDGE('',*,*,#143,.F.);
#145=CARTESIAN_POINT('',(0.00000000000000,1.01000000000000,-0.970000000000000));
#146=DIRECTION('',(0.00000000000000,-1.00000000000000,6.12323399573677E-17));
#147=DIRECTION('',(1.00000000000000,0.00000000000000,0.00000000000000));
#148=AXIS2_PLACEMENT_3D('',#145,#146,#147);
#149=CIRCLE('',#148,0.0400000000000000);
#150=EDGE_CURVE('',#106,#138,#149,.T.);
#151=ORIENTED_EDGE('',*,*,#150,.F.);
#152=ORIENTED_EDGE('',*,*,#111,.T.);
#153=EDGE_LOOP('',(#136,#144,#151,#152));
#154=FACE_OUTER_BOUND('',#153,.T.);
#155=CARTESIAN_POINT('',(0.00000000000000,1.01000000000000,-0.970000000000000));
#156=DIRECTION('',(0.00000000000000,1.00000000000000,0.00000000000000));
#157=DIRECTION('',(1.00000000000000,-0.00000000000000,0.00000000000000));
#158=AXIS2_PLACEMENT_3D('',#155,#156,#157);
#159=CYLINDRICAL_SURFACE('',#158,0.0400000000000000);
#160=ADVANCED_FACE('',(#154),#159,.T.);
#161=CARTESIAN_POINT('',(1.94000000000000,7.01000000000000,-1.01000000000000));
#162=VERTEX_POINT('',#161);
#163=CARTESIAN_POINT('',(0.00000000000000,7.01000000000000,-1.01000000000000));
#164=DIRECTION('',(1.00000000000000,0.00000000000000,0.00000000000000));
#165=VECTOR('',#164,1.00000000000000);
#166=LINE('',#163,#165);
#167=EDGE_CURVE('',#129,#162,#166,.T.);
#168=ORIENTED_EDGE('',*,*,#167,.T.);
#169=CARTESIAN_POINT('',(1.94000000000000,1.01000000000000,-1.01000000000000));
#170=VERTEX_POINT('',#169);
#171=CARTESIAN_POINT('',(1.94000000000000,1.01000000000000,-1.01000000000000));
#172=DIRECTION('',(0.00000000000000,1.00000000000000,0.00000000000000));
#173=VECTOR('',#172,1.00000000000000);
#174=LINE('',#171,#173);
#175=EDGE_CURVE('',#170,#162,#174,.T.);
#176=ORIENTED_EDGE('',*,*,#175,.F.);
#177=CARTESIAN_POINT('',(0.00000000000000,1.01000000000000,-1.01000000000000));
#178=DIRECTION('',(1.00000000000000,0.00000000000000,0.00000000000000));
#179=VECTOR('',#178,1.00000000000000);
#180=LINE('',#177,#179);
#181=EDGE_CURVE('',#138,#170,#180,.T.);
#182=ORIENTED_EDGE('',*,*,#181,.F.);
#183=ORIENTED_EDGE('',*,*,#143,.T.);
#184=EDGE_LOOP('',(#168,#176,#182,#183));
#185=FACE_OUTER_BOUND('',#184,.T.);
#186=CARTESIAN_POINT('',(0.970000000000000,1.01000000000000,-1.01000000000000));
#187=DIRECTION('',(0.00000000000000,0.00000000000000,-1.00000000000000));
#188=DIRECTION('',(-1.00000000000000,-0.00000000000000,-0.00000000000000));
#189=AXIS2_PLACEMENT_3D('',#186,#187,#188);
#190=PLANE('',#189);
#191=ADVANCED_FACE('',(#185),#190,.T.);
#192=CARTESIAN_POINT('',(1.94000000000000,7.01000000000000,-0.970000000000000));
#193=VERTEX_POINT('',#192);
#194=CARTESIAN_POINT('',(1.94000000000000,7.01000000000000,-0.990000000000000));
#195=DIRECTION('',(0.00000000000000,-1.00000000000000,6.12323399573677E-17));
#196=DIRECTION('',(1.00000000000000,0.00000000000000,0.00000000000000));
#197=AXIS2_PLACEMENT_3D('',#194,#195,#196);
#198=CIRCLE('',#197,0.0200000000000000);
#199=EDGE_CURVE('',#162,#193,#198,.T.);
#200=ORIENTED_EDGE('',*,*,#199,.T.);
#201=CARTESIAN_POINT('',(1.94000000000000,1.01000000000000,-0.970000000000000));
#202=VERTEX_POINT('',#201);
#203=CARTESIAN_POINT('',(1.94000000000000,1.01000000000000,-0.970000000000000));
#204=DIRECTION('',(0.00000000000000,1.00000000000000,0.00000000000000));
#205=VECTOR('',#204,1.00000000000000);
#206=LINE('',#203,#205);
#207=EDGE_CURVE('',#202,#193,#206,.T.);
#208=ORIENTED_EDGE('',*,*,#207,.F.);
#209=CARTESIAN_POINT('',(1.94000000000000,1.01000000000000,-0.990000000000000));
#210=DIRECTION('',(0.00000000000000,-1.00000000000000,6.12323399573677E-17));
#211=DIRECTION('',(1.00000000000000,0.00000000000000,0.00000000000000));
#212=AXIS2_PLACEMENT_3D('',#209,#210,#211);
#213=CIRCLE('',#212,0.0200000000000000);
#214=EDGE_CURVE('',#170,#202,#213,.T.);
#215=ORIENTED_EDGE('',*,*,#214,.F.);
#216=ORIENTED_EDGE('',*,*,#175,.T.);
#217=EDGE_LOOP('',(#200,#208,#215,#216));
#218=FACE_OUTER_BOUND('',#217,.T.);
#219=CARTESIAN_POINT('',(1.94000000000000,1.01000000000000,-0.990000000000000));
#220=DIRECTION('',(0.00000000000000,1.00000000000000,0.00000000000000));
#221=DIRECTION('',(-1.00000000000000,0.00000000000000,0.00000000000000));
#222=AXIS2_PLACEMENT_3D('',#219,#220,#221);
#223=CYLINDRICAL_SURFACE('',#222,0.0200000000000000);
#224=ADVANCED_FACE('',(#218),#223,.T.);
#225=CARTESIAN_POINT('',(0.00000000000000,7.01000000000000,-0.970000000000000));
#226=DIRECTION('',(-1.00000000000000,-0.00000000000000,-0.00000000000000));
#227=VECTOR('',#226,1.00000000000000);
#228=LINE('',#225,#227);
#229=EDGE_CURVE('',#193,#25,#228,.T.);
#230=ORIENTED_EDGE('',*,*,#229,.T.);
#231=ORIENTED_EDGE('',*,*,#54,.F.);
#232=CARTESIAN_POINT('',(0.00000000000000,1.01000000000000,-0.970000000000000));
#233=DIRECTION('',(1.00000000000000,0.00000000000000,0.00000000000000));
#234=VECTOR('',#233,1.00000000000000);
#235=LINE('',#232,#234);
#236=EDGE_CURVE('',#43,#202,#235,.T.);
#237=ORIENTED_EDGE('',*,*,#236,.T.);
#238=ORIENTED_EDGE('',*,*,#207,.T.);
#239=EDGE_LOOP('',(#230,#231,#237,#238));
#240=FACE_OUTER_BOUND('',#239,.T.);
#241=CARTESIAN_POINT('',(0.970000000000000,1.01000000000000,-0.970000000000000));
#242=DIRECTION('',(0.00000000000000,0.00000000000000,1.00000000000000));
#243=DIRECTION('',(1.00000000000000,0.00000000000000,0.00000000000000));
#244=AXIS2_PLACEMENT_3D('',#241,#242,#243);
#245=PLANE('',#244);
#246=ADVANCED_FACE('',(#240),#245,.T.);
#247=ORIENTED_EDGE('',*,*,#32,.F.);
#248=ORIENTED_EDGE('',*,*,#229,.F.);
#249=ORIENTED_EDGE('',*,*,#199,.F.);
#250=ORIENTED_EDGE('',*,*,#167,.F.);
#251=ORIENTED_EDGE('',*,*,#135,.F.);
#252=ORIENTED_EDGE('',*,*,#103,.F.);
#253=ORIENTED_EDGE('',*,*,#71,.F.);
#254=EDGE_LOOP('',(#247,#248,#249,#250,#251,#252,#253));
#255=FACE_OUTER_BOUND('',#254,.T.);
#256=CARTESIAN_POINT('',(0.605910500000000,7.01000000000000,-0.970000000000000));
#257=DIRECTION('',(0.00000000000000,-1.00000000000000,0.00000000000000));
#258=DIRECTION('',(1.00000000000000,0.00000000000000,0.00000000000000));
#259=AXIS2_PLACEMENT_3D('',#256,#257,#258);
#260=PLANE('',#259);
#261=ADVANCED_FACE('',(#255),#260,.F.);
#262=ORIENTED_EDGE('',*,*,#236,.F.);
#263=ORIENTED_EDGE('',*,*,#48,.F.);
#264=ORIENTED_EDGE('',*,*,#86,.T.);
#265=ORIENTED_EDGE('',*,*,#117,.T.);
#266=ORIENTED_EDGE('',*,*,#150,.T.);
#267=ORIENTED_EDGE('',*,*,#181,.T.);
#268=ORIENTED_EDGE('',*,*,#214,.T.);
#269=EDGE_LOOP('',(#262,#263,#264,#265,#266,#267,#268));
#270=FACE_OUTER_BOUND('',#269,.T.);
#271=CARTESIAN_POINT('',(0.605910500000000,1.01000000000000,-0.970000000000000));
#272=DIRECTION('',(0.00000000000000,-1.00000000000000,0.00000000000000));
#273=DIRECTION('',(1.00000000000000,0.00000000000000,0.00000000000000));
#274=AXIS2_PLACEMENT_3D('',#271,#272,#273);
#275=PLANE('',#274);
#276=ADVANCED_FACE('',(#270),#275,.T.);
#277=CLOSED_SHELL('',(#63,#96,#127,#160,#191,#224,#246,#261,#276));
#278=MANIFOLD_SOLID_BREP('',#277);
#279=COLOUR_RGB('',1.00000000000000,0.00000000000000,0.00000000000000);
#280=FILL_AREA_STYLE_COLOUR('',#279);
#281=FILL_AREA_STYLE('',(#280));
#282=SURFACE_STYLE_FILL_AREA(#281);
#283=SURFACE_SIDE_STYLE('',(#282));
#284=SURFACE_STYLE_USAGE(.BOTH.,#283);
#285=PRESENTATION_STYLE_ASSIGNMENT((#284));
#286=STYLED_ITEM('',(#285),#278);
#287=ADVANCED_BREP_SHAPE_REPRESENTATION('',(#278,#23),#18);
#288=PRODUCT('', '', ' ',(#2));
#289=PRODUCT_DEFINITION_FORMATION_WITH_SPECIFIED_SOURCE (' ', ' ', #288, .NOT_KNOWN.) ;
#290=PRODUCT_CATEGORY('part','') ;
#291=PRODUCT_RELATED_PRODUCT_CATEGORY('detail', ' ', (#288)) ;
#292=PRODUCT_CATEGORY_RELATIONSHIP(' ', ' ', #290, #291);
#293=PRODUCT_DEFINITION('', '', #289, #1);
#294=PRODUCT_DEFINITION_SHAPE('NONE', 'NONE', #293);
#295=SHAPE_DEFINITION_REPRESENTATION(#294, #287);
#296=PRESENTATION_LAYER_ASSIGNMENT('1','Unnamed [1]',(#278));
#297=MECHANICAL_DESIGN_GEOMETRIC_PRESENTATION_REPRESENTATION('',(#286), #18);
ENDSEC;
END-ISO-10303-21;
