ISO-10303-21;
HEADER;
FILE_DESCRIPTION((''),'2;1');
FILE_NAME('C:/Program Files/Kubotek/KeyCreatorPro.2021.SP0/STEP/SG2244.STP', '2021-03-03T21:07:26',(''), (''), 'KCM Version 2.0.6974.6974', 'KeyCreator Pro', '');
FILE_SCHEMA(('AUTOMOTIVE_DESIGN'));
ENDSEC;
DATA;
#1=PRODUCT_DEFINITION_CONTEXT('',#4,'design');
#2=PRODUCT_CONTEXT('',#4,'mechanical');
#3=APPLICATION_PROTOCOL_DEFINITION('International Standard','automotive_design',2001,#4);
#4=APPLICATION_CONTEXT('automotive design');
#10=DIMENSIONAL_EXPONENTS(1.0,0.0,0.0,0.0,0.0,0.0,0.0);
#11=DIMENSIONAL_EXPONENTS(0.0,0.0,0.0,0.0,0.0,0.0,0.0);
#12=(NAMED_UNIT(#10)LENGTH_UNIT()SI_UNIT(.MILLI.,.METRE.));
#13=(NAMED_UNIT(#11)PLANE_ANGLE_UNIT()SI_UNIT($,.RADIAN.));
#14=(NAMED_UNIT(#11)SOLID_ANGLE_UNIT()SI_UNIT($,.STERADIAN.));
#15=LENGTH_MEASURE_WITH_UNIT(LENGTH_MEASURE(25.4),#12);
#16= (CONVERSION_BASED_UNIT('INCH',#15)LENGTH_UNIT()NAMED_UNIT(#10));
#17=UNCERTAINTY_MEASURE_WITH_UNIT(LENGTH_MEASURE(1.0E-006),#16,'','');
#18=(GEOMETRIC_REPRESENTATION_CONTEXT(3)GLOBAL_UNCERTAINTY_ASSIGNED_CONTEXT((#17))GLOBAL_UNIT_ASSIGNED_CONTEXT((#16,#13,#14))REPRESENTATION_CONTEXT('NONE','WORKSPACE'));
#20=CARTESIAN_POINT('',(0.00000000000000,0.00000000000000,0.00000000000000));
#21=DIRECTION('',(0.00000000000000,0.00000000000000,1.00000000000000));
#22=DIRECTION('',(1.00000000000000,0.00000000000000,0.00000000000000));
#23=AXIS2_PLACEMENT_3D('',#20,#21,#22);
#24=CARTESIAN_POINT('',(1.24375000000000,-3.00000000000000,3.13815742281509E-17));
#25=VERTEX_POINT('',#24);
#26=CARTESIAN_POINT('',(0.00000000000000,-3.00000000000000,3.13815742281510E-17));
#27=DIRECTION('',(0.00000000000000,-1.00000000000000,6.12323399573677E-17));
#28=DIRECTION('',(1.00000000000000,0.00000000000000,0.00000000000000));
#29=AXIS2_PLACEMENT_3D('',#26,#27,#28);
#30=CIRCLE('',#29,1.24375000000000);
#31=EDGE_CURVE('',#25,#25,#30,.T.);
#32=ORIENTED_EDGE('',*,*,#31,.T.);
#33=CARTESIAN_POINT('',(1.24375000000000,3.00000000000000,-3.36012465516055E-16));
#34=VERTEX_POINT('',#33);
#35=CARTESIAN_POINT('',(1.24375000000000,1.52315445643952E-16,-1.52315445643952E-16));
#36=DIRECTION('',(0.00000000000000,-1.00000000000000,6.12323399573677E-17));
#37=VECTOR('',#36,1.24375000000000);
#38=LINE('',#35,#37);
#39=EDGE_CURVE('',#34,#25,#38,.T.);
#40=ORIENTED_EDGE('',*,*,#39,.F.);
#41=CARTESIAN_POINT('',(0.00000000000000,3.00000000000000,-3.36012465516055E-16));
#42=DIRECTION('',(0.00000000000000,1.00000000000000,-6.12323399573677E-17));
#43=DIRECTION('',(1.00000000000000,0.00000000000000,0.00000000000000));
#44=AXIS2_PLACEMENT_3D('',#41,#42,#43);
#45=CIRCLE('',#44,1.24375000000000);
#46=EDGE_CURVE('',#34,#34,#45,.T.);
#47=ORIENTED_EDGE('',*,*,#46,.T.);
#48=ORIENTED_EDGE('',*,*,#39,.T.);
#49=EDGE_LOOP('',(#32,#40,#47,#48));
#50=FACE_OUTER_BOUND('',#49,.T.);
#51=CARTESIAN_POINT('',(0.00000000000000,1.52315445643952E-16,-1.52315445643952E-16));
#52=DIRECTION('',(0.00000000000000,-1.00000000000000,6.12323399573677E-17));
#53=DIRECTION('',(1.00000000000000,0.00000000000000,0.00000000000000));
#54=AXIS2_PLACEMENT_3D('',#51,#52,#53);
#55=CYLINDRICAL_SURFACE('',#54,1.24375000000000);
#56=ADVANCED_FACE('',(#50),#55,.F.);
#57=CARTESIAN_POINT('',(1.29375000000000,-3.00000000000000,3.13815742281509E-17));
#58=VERTEX_POINT('',#57);
#59=CARTESIAN_POINT('',(0.00000000000000,-3.00000000000000,3.13815742281510E-17));
#60=DIRECTION('',(0.00000000000000,1.00000000000000,-6.12323399573677E-17));
#61=DIRECTION('',(1.00000000000000,0.00000000000000,0.00000000000000));
#62=AXIS2_PLACEMENT_3D('',#59,#60,#61);
#63=CIRCLE('',#62,1.29375000000000);
#64=EDGE_CURVE('',#58,#58,#63,.T.);
#65=ORIENTED_EDGE('',*,*,#64,.T.);
#66=CARTESIAN_POINT('',(1.29375000000000,3.00000000000000,-3.36012465516055E-16));
#67=VERTEX_POINT('',#66);
#68=CARTESIAN_POINT('',(1.29375000000000,1.52315445643952E-16,-1.52315445643952E-16));
#69=DIRECTION('',(0.00000000000000,-1.00000000000000,6.12323399573677E-17));
#70=VECTOR('',#69,1.29375000000000);
#71=LINE('',#68,#70);
#72=EDGE_CURVE('',#67,#58,#71,.T.);
#73=ORIENTED_EDGE('',*,*,#72,.F.);
#74=CARTESIAN_POINT('',(0.00000000000000,3.00000000000000,-3.36012465516055E-16));
#75=DIRECTION('',(0.00000000000000,-1.00000000000000,6.12323399573677E-17));
#76=DIRECTION('',(1.00000000000000,0.00000000000000,0.00000000000000));
#77=AXIS2_PLACEMENT_3D('',#74,#75,#76);
#78=CIRCLE('',#77,1.29375000000000);
#79=EDGE_CURVE('',#67,#67,#78,.T.);
#80=ORIENTED_EDGE('',*,*,#79,.T.);
#81=ORIENTED_EDGE('',*,*,#72,.T.);
#82=EDGE_LOOP('',(#65,#73,#80,#81));
#83=FACE_OUTER_BOUND('',#82,.T.);
#84=CARTESIAN_POINT('',(0.00000000000000,1.52315445643952E-16,-1.52315445643952E-16));
#85=DIRECTION('',(0.00000000000000,-1.00000000000000,6.12323399573677E-17));
#86=DIRECTION('',(1.00000000000000,0.00000000000000,0.00000000000000));
#87=AXIS2_PLACEMENT_3D('',#84,#85,#86);
#88=CYLINDRICAL_SURFACE('',#87,1.29375000000000);
#89=ADVANCED_FACE('',(#83),#88,.T.);
#90=ORIENTED_EDGE('',*,*,#64,.F.);
#91=EDGE_LOOP('',(#90));
#92=FACE_OUTER_BOUND('',#91,.T.);
#93=ORIENTED_EDGE('',*,*,#31,.F.);
#94=EDGE_LOOP('',(#93));
#95=FACE_BOUND('',#94,.T.);
#96=CARTESIAN_POINT('',(-0.493782124526723,-3.00000000000000,1.19581280976492));
#97=DIRECTION('',(0.00000000000000,-1.00000000000000,6.12323399573677E-17));
#98=DIRECTION('',(1.00000000000000,0.00000000000000,0.00000000000000));
#99=AXIS2_PLACEMENT_3D('',#96,#97,#98);
#100=PLANE('',#99);
#101=ADVANCED_FACE('',(#92,#95),#100,.T.);
#102=ORIENTED_EDGE('',*,*,#79,.F.);
#103=EDGE_LOOP('',(#102));
#104=FACE_OUTER_BOUND('',#103,.T.);
#105=ORIENTED_EDGE('',*,*,#46,.F.);
#106=EDGE_LOOP('',(#105));
#107=FACE_BOUND('',#106,.T.);
#108=CARTESIAN_POINT('',(-0.493782124526723,3.00000000000000,1.19581280976492));
#109=DIRECTION('',(0.00000000000000,-1.00000000000000,6.12323399573677E-17));
#110=DIRECTION('',(1.00000000000000,0.00000000000000,0.00000000000000));
#111=AXIS2_PLACEMENT_3D('',#108,#109,#110);
#112=PLANE('',#111);
#113=ADVANCED_FACE('',(#104,#107),#112,.F.);
#114=CLOSED_SHELL('',(#56,#89,#101,#113));
#115=MANIFOLD_SOLID_BREP('',#114);
#116=COLOUR_RGB('',1.00000000000000,0.00000000000000,0.00000000000000);
#117=FILL_AREA_STYLE_COLOUR('',#116);
#118=FILL_AREA_STYLE('',(#117));
#119=SURFACE_STYLE_FILL_AREA(#118);
#120=SURFACE_SIDE_STYLE('',(#119));
#121=SURFACE_STYLE_USAGE(.BOTH.,#120);
#122=PRESENTATION_STYLE_ASSIGNMENT((#121));
#123=STYLED_ITEM('',(#122),#115);
#124=ADVANCED_BREP_SHAPE_REPRESENTATION('',(#115,#23),#18);
#125=PRODUCT('', '', ' ',(#2));
#126=PRODUCT_DEFINITION_FORMATION_WITH_SPECIFIED_SOURCE (' ', ' ', #125, .NOT_KNOWN.) ;
#127=PRODUCT_CATEGORY('part','') ;
#128=PRODUCT_RELATED_PRODUCT_CATEGORY('detail', ' ', (#125)) ;
#129=PRODUCT_CATEGORY_RELATIONSHIP(' ', ' ', #127, #128);
#130=PRODUCT_DEFINITION('', '', #126, #1);
#131=PRODUCT_DEFINITION_SHAPE('NONE', 'NONE', #130);
#132=SHAPE_DEFINITION_REPRESENTATION(#131, #124);
#133=PRESENTATION_LAYER_ASSIGNMENT('1','Unnamed [1]',(#115));
#134=MECHANICAL_DESIGN_GEOMETRIC_PRESENTATION_REPRESENTATION('',(#123), #18);
ENDSEC;
END-ISO-10303-21;
