ISO-10303-21;
HEADER;
FILE_DESCRIPTION((''),'2;1');
FILE_NAME('C:/Program Files/Kubotek/KeyCreatorPro.2021.SP0/STEP/SG2224.STP', '2021-02-02T21:00:27',(''), (''), 'KCM Version 2.0.6974.6974', 'KeyCreator Pro', '');
FILE_SCHEMA(('AUTOMOTIVE_DESIGN'));
ENDSEC;
DATA;
#1=PRODUCT_DEFINITION_CONTEXT('',#4,'design');
#2=PRODUCT_CONTEXT('',#4,'mechanical');
#3=APPLICATION_PROTOCOL_DEFINITION('International Standard','automotive_design',2001,#4);
#4=APPLICATION_CONTEXT('automotive design');
#10=DIMENSIONAL_EXPONENTS(1.0,0.0,0.0,0.0,0.0,0.0,0.0);
#11=DIMENSIONAL_EXPONENTS(0.0,0.0,0.0,0.0,0.0,0.0,0.0);
#12=(NAMED_UNIT(#10)LENGTH_UNIT()SI_UNIT(.MILLI.,.METRE.));
#13=(NAMED_UNIT(#11)PLANE_ANGLE_UNIT()SI_UNIT($,.RADIAN.));
#14=(NAMED_UNIT(#11)SOLID_ANGLE_UNIT()SI_UNIT($,.STERADIAN.));
#15=LENGTH_MEASURE_WITH_UNIT(LENGTH_MEASURE(25.4),#12);
#16= (CONVERSION_BASED_UNIT('INCH',#15)LENGTH_UNIT()NAMED_UNIT(#10));
#17=UNCERTAINTY_MEASURE_WITH_UNIT(LENGTH_MEASURE(1.0E-006),#16,'','');
#18=(GEOMETRIC_REPRESENTATION_CONTEXT(3)GLOBAL_UNCERTAINTY_ASSIGNED_CONTEXT((#17))GLOBAL_UNIT_ASSIGNED_CONTEXT((#16,#13,#14))REPRESENTATION_CONTEXT('NONE','WORKSPACE'));
#20=CARTESIAN_POINT('',(0.00000000000000,0.00000000000000,0.00000000000000));
#21=DIRECTION('',(0.00000000000000,0.00000000000000,1.00000000000000));
#22=DIRECTION('',(1.00000000000000,0.00000000000000,0.00000000000000));
#23=AXIS2_PLACEMENT_3D('',#20,#21,#22);
#24=CARTESIAN_POINT('',(0.192591143301041,5.99031988340275,0.241667370584961));
#25=VERTEX_POINT('',#24);
#26=CARTESIAN_POINT('',(-0.00731593752862728,5.99031988340275,0.241449305701059));
#27=VERTEX_POINT('',#26);
#28=CARTESIAN_POINT('',(0.0926342802602678,5.99031988340275,0.244604296026321));
#29=DIRECTION('',(0.00000000000000,-1.00000000000000,6.12323399573677E-17));
#30=DIRECTION('',(1.00000000000000,0.00000000000000,0.00000000000000));
#31=AXIS2_PLACEMENT_3D('',#28,#29,#30);
#32=CIRCLE('',#31,0.100000000000000);
#33=EDGE_CURVE('',#25,#27,#32,.T.);
#34=ORIENTED_EDGE('',*,*,#33,.T.);
#35=CARTESIAN_POINT('',(-0.00731593752862736,-0.00968011659725419,0.241449305701059));
#36=VERTEX_POINT('',#35);
#37=CARTESIAN_POINT('',(-0.00731593752862736,-0.00968011659725419,0.241449305701059));
#38=DIRECTION('',(1.38777878078145E-17,1.00000000000000,-6.47630097698008E-17));
#39=VECTOR('',#38,1.00000000000000);
#40=LINE('',#37,#39);
#41=EDGE_CURVE('',#36,#27,#40,.T.);
#42=ORIENTED_EDGE('',*,*,#41,.F.);
#43=CARTESIAN_POINT('',(0.192591143301041,-0.00968011659725419,0.241667370584961));
#44=VERTEX_POINT('',#43);
#45=CARTESIAN_POINT('',(0.0926342802602678,-0.00968011659725419,0.244604296026321));
#46=DIRECTION('',(0.00000000000000,-1.00000000000000,6.12323399573677E-17));
#47=DIRECTION('',(1.00000000000000,0.00000000000000,0.00000000000000));
#48=AXIS2_PLACEMENT_3D('',#45,#46,#47);
#49=CIRCLE('',#48,0.100000000000000);
#50=EDGE_CURVE('',#44,#36,#49,.T.);
#51=ORIENTED_EDGE('',*,*,#50,.F.);
#52=CARTESIAN_POINT('',(0.192591143301041,-0.00968011659725419,0.241667370584961));
#53=DIRECTION('',(1.38777878078145E-17,1.00000000000000,-6.47630097698008E-17));
#54=VECTOR('',#53,1.00000000000000);
#55=LINE('',#52,#54);
#56=EDGE_CURVE('',#44,#25,#55,.T.);
#57=ORIENTED_EDGE('',*,*,#56,.T.);
#58=EDGE_LOOP('',(#34,#42,#51,#57));
#59=FACE_OUTER_BOUND('',#58,.T.);
#60=CARTESIAN_POINT('',(0.0926342802602678,-0.00968011659725419,0.244604296026321));
#61=DIRECTION('',(1.38777878078145E-17,1.00000000000000,-6.47630097698008E-17));
#62=DIRECTION('',(0.00109083056616929,-6.93889390390723E-17,-0.999999405044161));
#63=AXIS2_PLACEMENT_3D('',#60,#61,#62);
#64=CYLINDRICAL_SURFACE('',#63,0.100000000000000);
#65=ADVANCED_FACE('',(#59),#64,.T.);
#66=CARTESIAN_POINT('',(3.76434994286967E-16,5.99031988340275,0.00968011659725382));
#67=VERTEX_POINT('',#66);
#68=CARTESIAN_POINT('',(-0.00731593752862728,5.99031988340275,0.241449305701059));
#69=DIRECTION('',(0.0315499032526169,-5.98478132137690E-17,-0.999502177888948));
#70=VECTOR('',#69,1.00000000000000);
#71=LINE('',#68,#70);
#72=EDGE_CURVE('',#27,#67,#71,.T.);
#73=ORIENTED_EDGE('',*,*,#72,.T.);
#74=CARTESIAN_POINT('',(2.93168267440080E-16,-0.00968011659725421,0.00968011659725421));
#75=VERTEX_POINT('',#74);
#76=CARTESIAN_POINT('',(2.93168267440080E-16,-0.00968011659725421,0.00968011659725421));
#77=DIRECTION('',(1.38777878078145E-17,1.00000000000000,-6.47630097698008E-17));
#78=VECTOR('',#77,1.00000000000000);
#79=LINE('',#76,#78);
#80=EDGE_CURVE('',#75,#67,#79,.T.);
#81=ORIENTED_EDGE('',*,*,#80,.F.);
#82=CARTESIAN_POINT('',(-0.00731593752862736,-0.00968011659725419,0.241449305701059));
#83=DIRECTION('',(0.0315499032526169,-5.98478132137690E-17,-0.999502177888948));
#84=VECTOR('',#83,1.00000000000000);
#85=LINE('',#82,#84);
#86=EDGE_CURVE('',#36,#75,#85,.T.);
#87=ORIENTED_EDGE('',*,*,#86,.F.);
#88=ORIENTED_EDGE('',*,*,#41,.T.);
#89=EDGE_LOOP('',(#73,#81,#87,#88));
#90=FACE_OUTER_BOUND('',#89,.T.);
#91=CARTESIAN_POINT('',(-0.00365796876431368,-0.00968011659725420,0.125564711149157));
#92=DIRECTION('',(-0.999502177888948,1.18276124456057E-17,-0.0315499032526169));
#93=DIRECTION('',(-0.0315499032526169,5.98478132137690E-17,0.999502177888948));
#94=AXIS2_PLACEMENT_3D('',#91,#92,#93);
#95=PLANE('',#94);
#96=ADVANCED_FACE('',(#90),#95,.T.);
#97=CARTESIAN_POINT('',(0.0102911099105213,5.99031988340275,-3.88578058618805E-16));
#98=VERTEX_POINT('',#97);
#99=CARTESIAN_POINT('',(0.00999502177888986,5.99031988340275,0.00999561562977985));
#100=DIRECTION('',(0.00000000000000,-1.00000000000000,6.12323399573677E-17));
#101=DIRECTION('',(1.00000000000000,0.00000000000000,0.00000000000000));
#102=AXIS2_PLACEMENT_3D('',#99,#100,#101);
#103=CIRCLE('',#102,0.0100000000000000);
#104=EDGE_CURVE('',#67,#98,#103,.T.);
#105=ORIENTED_EDGE('',*,*,#104,.T.);
#106=CARTESIAN_POINT('',(0.0102911099105212,-0.00968011659725421,0.00000000000000));
#107=VERTEX_POINT('',#106);
#108=CARTESIAN_POINT('',(0.0102911099105212,-0.00968011659725421,0.00000000000000));
#109=DIRECTION('',(1.38777878078145E-17,1.00000000000000,-6.47630097698008E-17));
#110=VECTOR('',#109,1.00000000000000);
#111=LINE('',#108,#110);
#112=EDGE_CURVE('',#107,#98,#111,.T.);
#113=ORIENTED_EDGE('',*,*,#112,.F.);
#114=CARTESIAN_POINT('',(0.00999502177888978,-0.00968011659725421,0.00999561562978024));
#115=DIRECTION('',(0.00000000000000,-1.00000000000000,6.12323399573677E-17));
#116=DIRECTION('',(1.00000000000000,0.00000000000000,0.00000000000000));
#117=AXIS2_PLACEMENT_3D('',#114,#115,#116);
#118=CIRCLE('',#117,0.0100000000000000);
#119=EDGE_CURVE('',#75,#107,#118,.T.);
#120=ORIENTED_EDGE('',*,*,#119,.F.);
#121=ORIENTED_EDGE('',*,*,#80,.T.);
#122=EDGE_LOOP('',(#105,#113,#120,#121));
#123=FACE_OUTER_BOUND('',#122,.T.);
#124=CARTESIAN_POINT('',(0.00999502177888978,-0.00968011659725421,0.00999561562978024));
#125=DIRECTION('',(1.38777878078145E-17,1.00000000000000,-6.47630097698008E-17));
#126=DIRECTION('',(1.00000000000000,-1.38777878078145E-17,8.98767307380710E-34));
#127=AXIS2_PLACEMENT_3D('',#124,#125,#126);
#128=CYLINDRICAL_SURFACE('',#127,0.0100000000000000);
#129=ADVANCED_FACE('',(#123),#128,.T.);
#130=CARTESIAN_POINT('',(0.0532723381673642,5.99031988340275,0.00127318136682947));
#131=VERTEX_POINT('',#130);
#132=CARTESIAN_POINT('',(0.0532723381673642,5.99031988340275,0.00127318136682947));
#133=DIRECTION('',(0.999561562978021,-3.69307824341831E-52,0.0296088131632292));
#134=VECTOR('',#133,1.00000000000000);
#135=LINE('',#132,#134);
#136=EDGE_CURVE('',#98,#131,#135,.T.);
#137=ORIENTED_EDGE('',*,*,#136,.T.);
#138=CARTESIAN_POINT('',(0.0532723381673641,-0.00968011659725421,0.00127318136682986));
#139=VERTEX_POINT('',#138);
#140=CARTESIAN_POINT('',(0.0532723381673641,-0.00968011659725421,0.00127318136682986));
#141=DIRECTION('',(1.38777878078145E-17,1.00000000000000,-6.47630097698008E-17));
#142=VECTOR('',#141,1.00000000000000);
#143=LINE('',#140,#142);
#144=EDGE_CURVE('',#139,#131,#143,.T.);
#145=ORIENTED_EDGE('',*,*,#144,.F.);
#146=CARTESIAN_POINT('',(0.0532723381673641,-0.00968011659725421,0.00127318136682986));
#147=DIRECTION('',(-0.999561562978021,0.00000000000000,-0.0296088131632292));
#148=VECTOR('',#147,1.00000000000000);
#149=LINE('',#146,#148);
#150=EDGE_CURVE('',#139,#107,#149,.T.);
#151=ORIENTED_EDGE('',*,*,#150,.T.);
#152=ORIENTED_EDGE('',*,*,#112,.T.);
#153=EDGE_LOOP('',(#137,#145,#151,#152));
#154=FACE_OUTER_BOUND('',#153,.T.);
#155=CARTESIAN_POINT('',(0.0317817240389426,-0.00968011659725421,0.000636590683414915));
#156=DIRECTION('',(0.0296088131632292,-6.51455200949835E-17,-0.999561562978021));
#157=DIRECTION('',(-0.999561562978021,0.00000000000000,-0.0296088131632292));
#158=AXIS2_PLACEMENT_3D('',#155,#156,#157);
#159=PLANE('',#158);
#160=ADVANCED_FACE('',(#154),#159,.T.);
#161=CARTESIAN_POINT('',(0.0629712718146214,5.99031988340275,0.0115842960291362));
#162=VERTEX_POINT('',#161);
#163=CARTESIAN_POINT('',(0.0529762500357319,5.99031988340275,0.0112687969966097));
#164=DIRECTION('',(0.00000000000000,-1.00000000000000,6.12323399573677E-17));
#165=DIRECTION('',(1.00000000000000,0.00000000000000,0.00000000000000));
#166=AXIS2_PLACEMENT_3D('',#163,#164,#165);
#167=CIRCLE('',#166,0.0100000000000000);
#168=EDGE_CURVE('',#131,#162,#167,.T.);
#169=ORIENTED_EDGE('',*,*,#168,.T.);
#170=CARTESIAN_POINT('',(0.0629712718146213,-0.00968011659725421,0.0115842960291366));
#171=VERTEX_POINT('',#170);
#172=CARTESIAN_POINT('',(0.0629712718146213,-0.00968011659725421,0.0115842960291366));
#173=DIRECTION('',(1.38777878078145E-17,1.00000000000000,-6.47630097698008E-17));
#174=VECTOR('',#173,1.00000000000000);
#175=LINE('',#172,#174);
#176=EDGE_CURVE('',#171,#162,#175,.T.);
#177=ORIENTED_EDGE('',*,*,#176,.F.);
#178=CARTESIAN_POINT('',(0.0529762500357318,-0.00968011659725421,0.0112687969966101));
#179=DIRECTION('',(0.00000000000000,-1.00000000000000,6.12323399573677E-17));
#180=DIRECTION('',(1.00000000000000,0.00000000000000,0.00000000000000));
#181=AXIS2_PLACEMENT_3D('',#178,#179,#180);
#182=CIRCLE('',#181,0.0100000000000000);
#183=EDGE_CURVE('',#139,#171,#182,.T.);
#184=ORIENTED_EDGE('',*,*,#183,.F.);
#185=ORIENTED_EDGE('',*,*,#144,.T.);
#186=EDGE_LOOP('',(#169,#177,#184,#185));
#187=FACE_OUTER_BOUND('',#186,.T.);
#188=CARTESIAN_POINT('',(0.0529762500357318,-0.00968011659725421,0.0112687969966101));
#189=DIRECTION('',(1.38777878078145E-17,1.00000000000000,-6.47630097698008E-17));
#190=DIRECTION('',(-0.728398978530440,0.00000000000000,0.685153215037200));
#191=AXIS2_PLACEMENT_3D('',#188,#189,#190);
#192=CYLINDRICAL_SURFACE('',#191,0.0100000000000000);
#193=ADVANCED_FACE('',(#187),#192,.T.);
#194=CARTESIAN_POINT('',(0.0556526996783769,5.99031988340275,0.243436949605974));
#195=VERTEX_POINT('',#194);
#196=CARTESIAN_POINT('',(0.0556526996783769,5.99031988340275,0.243436949605974));
#197=DIRECTION('',(-0.0315499032526153,5.98262686417534E-17,0.999502177888948));
#198=VECTOR('',#197,1.00000000000000);
#199=LINE('',#196,#198);
#200=EDGE_CURVE('',#162,#195,#199,.T.);
#201=ORIENTED_EDGE('',*,*,#200,.T.);
#202=CARTESIAN_POINT('',(0.0556526996783768,-0.00968011659725419,0.243436949605974));
#203=VERTEX_POINT('',#202);
#204=CARTESIAN_POINT('',(0.0556526996783768,-0.00968011659725419,0.243436949605974));
#205=DIRECTION('',(1.38777878078145E-17,1.00000000000000,-6.47630097698008E-17));
#206=VECTOR('',#205,1.00000000000000);
#207=LINE('',#204,#206);
#208=EDGE_CURVE('',#203,#195,#207,.T.);
#209=ORIENTED_EDGE('',*,*,#208,.F.);
#210=CARTESIAN_POINT('',(0.0556526996783768,-0.00968011659725419,0.243436949605974));
#211=DIRECTION('',(0.0315499032526153,-5.98262686417534E-17,-0.999502177888948));
#212=VECTOR('',#211,1.00000000000000);
#213=LINE('',#210,#212);
#214=EDGE_CURVE('',#203,#171,#213,.T.);
#215=ORIENTED_EDGE('',*,*,#214,.T.);
#216=ORIENTED_EDGE('',*,*,#176,.T.);
#217=EDGE_LOOP('',(#201,#209,#215,#216));
#218=FACE_OUTER_BOUND('',#217,.T.);
#219=CARTESIAN_POINT('',(0.0593119857464979,-0.00968011659725420,0.127510622817555));
#220=DIRECTION('',(0.999502177888948,-1.18276124456058E-17,0.0315499032526153));
#221=DIRECTION('',(0.0315499032526153,-5.98262686417534E-17,-0.999502177888948));
#222=AXIS2_PLACEMENT_3D('',#219,#220,#221);
#223=PLANE('',#222);
#224=ADVANCED_FACE('',(#218),#223,.T.);
#225=CARTESIAN_POINT('',(0.129618319585354,5.99031988340275,0.243517633613018));
#226=VERTEX_POINT('',#225);
#227=CARTESIAN_POINT('',(0.0926342802602678,5.99031988340275,0.244604296026321));
#228=DIRECTION('',(0.00000000000000,1.00000000000000,-6.12323399573677E-17));
#229=DIRECTION('',(1.00000000000000,0.00000000000000,0.00000000000000));
#230=AXIS2_PLACEMENT_3D('',#227,#228,#229);
#231=CIRCLE('',#230,0.0370000000000000);
#232=EDGE_CURVE('',#195,#226,#231,.T.);
#233=ORIENTED_EDGE('',*,*,#232,.T.);
#234=CARTESIAN_POINT('',(0.129618319585354,-0.00968011659725419,0.243517633613018));
#235=VERTEX_POINT('',#234);
#236=CARTESIAN_POINT('',(0.129618319585354,-0.00968011659725419,0.243517633613018));
#237=DIRECTION('',(1.38777878078145E-17,1.00000000000000,-6.47630097698008E-17));
#238=VECTOR('',#237,1.00000000000000);
#239=LINE('',#236,#238);
#240=EDGE_CURVE('',#235,#226,#239,.T.);
#241=ORIENTED_EDGE('',*,*,#240,.F.);
#242=CARTESIAN_POINT('',(0.0926342802602678,-0.00968011659725419,0.244604296026321));
#243=DIRECTION('',(0.00000000000000,-1.00000000000000,6.12323399573677E-17));
#244=DIRECTION('',(1.00000000000000,0.00000000000000,0.00000000000000));
#245=AXIS2_PLACEMENT_3D('',#242,#243,#244);
#246=CIRCLE('',#245,0.0370000000000000);
#247=EDGE_CURVE('',#235,#203,#246,.T.);
#248=ORIENTED_EDGE('',*,*,#247,.T.);
#249=ORIENTED_EDGE('',*,*,#208,.T.);
#250=EDGE_LOOP('',(#233,#241,#248,#249));
#251=FACE_OUTER_BOUND('',#250,.T.);
#252=CARTESIAN_POINT('',(0.0926342802602678,-0.00968011659725419,0.244604296026321));
#253=DIRECTION('',(1.38777878078145E-17,1.00000000000000,-6.47630097698008E-17));
#254=DIRECTION('',(0.00109083056617453,-4.68844182696434E-17,-0.999999405044161));
#255=AXIS2_PLACEMENT_3D('',#252,#253,#254);
#256=CYLINDRICAL_SURFACE('',#255,0.0370000000000000);
#257=ADVANCED_FACE('',(#251),#256,.F.);
#258=CARTESIAN_POINT('',(0.122805588487808,5.99031988340275,0.0116495651695019));
#259=VERTEX_POINT('',#258);
#260=CARTESIAN_POINT('',(0.129618319585354,5.99031988340275,0.243517633613018));
#261=DIRECTION('',(-0.0293692544136154,-5.98262686417532E-17,-0.999568630407732));
#262=VECTOR('',#261,1.00000000000000);
#263=LINE('',#260,#262);
#264=EDGE_CURVE('',#226,#259,#263,.T.);
#265=ORIENTED_EDGE('',*,*,#264,.T.);
#266=CARTESIAN_POINT('',(0.122805588487808,-0.00968011659725421,0.0116495651695023));
#267=VERTEX_POINT('',#266);
#268=CARTESIAN_POINT('',(0.122805588487808,-0.00968011659725421,0.0116495651695023));
#269=DIRECTION('',(1.38777878078145E-17,1.00000000000000,-6.47630097698008E-17));
#270=VECTOR('',#269,1.00000000000000);
#271=LINE('',#268,#270);
#272=EDGE_CURVE('',#267,#259,#271,.T.);
#273=ORIENTED_EDGE('',*,*,#272,.F.);
#274=CARTESIAN_POINT('',(0.129618319585354,-0.00968011659725419,0.243517633613018));
#275=DIRECTION('',(-0.0293692544136154,-5.98262686417532E-17,-0.999568630407732));
#276=VECTOR('',#275,1.00000000000000);
#277=LINE('',#274,#276);
#278=EDGE_CURVE('',#235,#267,#277,.T.);
#279=ORIENTED_EDGE('',*,*,#278,.F.);
#280=ORIENTED_EDGE('',*,*,#240,.T.);
#281=EDGE_LOOP('',(#265,#273,#279,#280));
#282=FACE_OUTER_BOUND('',#281,.T.);
#283=CARTESIAN_POINT('',(0.126211954036581,-0.00968011659725420,0.127583599391260));
#284=DIRECTION('',(-0.999568630407732,1.57738426626669E-17,0.0293692544136154));
#285=DIRECTION('',(0.0293692544136154,5.98262686417532E-17,0.999568630407732));
#286=AXIS2_PLACEMENT_3D('',#283,#284,#285);
#287=PLANE('',#286);
#288=ADVANCED_FACE('',(#282),#287,.T.);
#289=CARTESIAN_POINT('',(0.132526994398029,5.99031988340275,0.00135963481979268));
#290=VERTEX_POINT('',#289);
#291=CARTESIAN_POINT('',(0.132801274791885,5.99031988340275,0.0113558726253660));
#292=DIRECTION('',(0.00000000000000,-1.00000000000000,6.12323399573677E-17));
#293=DIRECTION('',(1.00000000000000,0.00000000000000,0.00000000000000));
#294=AXIS2_PLACEMENT_3D('',#291,#292,#293);
#295=CIRCLE('',#294,0.0100000000000000);
#296=EDGE_CURVE('',#259,#290,#295,.T.);
#297=ORIENTED_EDGE('',*,*,#296,.T.);
#298=CARTESIAN_POINT('',(0.132526994398029,-0.00968011659725421,0.00135963481979307));
#299=VERTEX_POINT('',#298);
#300=CARTESIAN_POINT('',(0.132526994398029,-0.00968011659725421,0.00135963481979307));
#301=DIRECTION('',(1.38777878078145E-17,1.00000000000000,-6.47630097698008E-17));
#302=VECTOR('',#301,1.00000000000000);
#303=LINE('',#300,#302);
#304=EDGE_CURVE('',#299,#290,#303,.T.);
#305=ORIENTED_EDGE('',*,*,#304,.F.);
#306=CARTESIAN_POINT('',(0.132801274791885,-0.00968011659725421,0.0113558726253664));
#307=DIRECTION('',(0.00000000000000,-1.00000000000000,6.12323399573677E-17));
#308=DIRECTION('',(1.00000000000000,0.00000000000000,0.00000000000000));
#309=AXIS2_PLACEMENT_3D('',#306,#307,#308);
#310=CIRCLE('',#309,0.0100000000000000);
#311=EDGE_CURVE('',#267,#299,#310,.T.);
#312=ORIENTED_EDGE('',*,*,#311,.F.);
#313=ORIENTED_EDGE('',*,*,#272,.T.);
#314=EDGE_LOOP('',(#297,#305,#312,#313));
#315=FACE_OUTER_BOUND('',#314,.T.);
#316=CARTESIAN_POINT('',(0.132801274791885,-0.00968011659725421,0.0113558726253664));
#317=DIRECTION('',(1.38777878078145E-17,1.00000000000000,-6.47630097698008E-17));
#318=DIRECTION('',(1.00000000000000,-1.38777878078145E-17,8.98767307380710E-34));
#319=AXIS2_PLACEMENT_3D('',#316,#317,#318);
#320=CYLINDRICAL_SURFACE('',#319,0.0100000000000000);
#321=ADVANCED_FACE('',(#315),#320,.T.);
#322=CARTESIAN_POINT('',(0.175510898015817,5.99031988340275,0.000180226902226688));
#323=VERTEX_POINT('',#322);
#324=CARTESIAN_POINT('',(0.132526994398029,5.99031988340275,0.00135963481979268));
#325=DIRECTION('',(0.999623780557196,3.42107246772223E-52,-0.0274280393856204));
#326=VECTOR('',#325,1.00000000000000);
#327=LINE('',#324,#326);
#328=EDGE_CURVE('',#290,#323,#327,.T.);
#329=ORIENTED_EDGE('',*,*,#328,.T.);
#330=CARTESIAN_POINT('',(0.175510898015817,-0.00968011659725421,0.000180226902227076));
#331=VERTEX_POINT('',#330);
#332=CARTESIAN_POINT('',(0.175510898015817,-0.00968011659725421,0.000180226902227076));
#333=DIRECTION('',(1.38777878078145E-17,1.00000000000000,-6.47630097698008E-17));
#334=VECTOR('',#333,1.00000000000000);
#335=LINE('',#332,#334);
#336=EDGE_CURVE('',#331,#323,#335,.T.);
#337=ORIENTED_EDGE('',*,*,#336,.F.);
#338=CARTESIAN_POINT('',(0.132526994398029,-0.00968011659725421,0.00135963481979307));
#339=DIRECTION('',(0.999623780557196,0.00000000000000,-0.0274280393856204));
#340=VECTOR('',#339,1.00000000000000);
#341=LINE('',#338,#340);
#342=EDGE_CURVE('',#299,#331,#341,.T.);
#343=ORIENTED_EDGE('',*,*,#342,.F.);
#344=ORIENTED_EDGE('',*,*,#304,.T.);
#345=EDGE_LOOP('',(#329,#337,#343,#344));
#346=FACE_OUTER_BOUND('',#345,.T.);
#347=CARTESIAN_POINT('',(0.154018946206923,-0.00968011659725421,0.000769930861010071));
#348=DIRECTION('',(-0.0274280393856204,-6.43580041557729E-17,-0.999623780557196));
#349=DIRECTION('',(-0.999623780557196,-0.00000000000000,0.0274280393856204));
#350=AXIS2_PLACEMENT_3D('',#347,#348,#349);
#351=PLANE('',#350);
#352=ADVANCED_FACE('',(#346),#351,.T.);
#353=CARTESIAN_POINT('',(0.185780864713751,5.99031988340275,0.00988277216366150));
#354=VERTEX_POINT('',#353);
#355=CARTESIAN_POINT('',(0.175785178409674,5.99031988340275,0.0101764647077987));
#356=DIRECTION('',(0.00000000000000,-1.00000000000000,6.12323399573677E-17));
#357=DIRECTION('',(1.00000000000000,0.00000000000000,0.00000000000000));
#358=AXIS2_PLACEMENT_3D('',#355,#356,#357);
#359=CIRCLE('',#358,0.0100000000000000);
#360=EDGE_CURVE('',#323,#354,#359,.T.);
#361=ORIENTED_EDGE('',*,*,#360,.T.);
#362=CARTESIAN_POINT('',(0.185780864713751,-0.00968011659725421,0.00988277216366189));
#363=VERTEX_POINT('',#362);
#364=CARTESIAN_POINT('',(0.185780864713751,-0.00968011659725421,0.00988277216366189));
#365=DIRECTION('',(1.38777878078145E-17,1.00000000000000,-6.47630097698008E-17));
#366=VECTOR('',#365,1.00000000000000);
#367=LINE('',#364,#366);
#368=EDGE_CURVE('',#363,#354,#367,.T.);
#369=ORIENTED_EDGE('',*,*,#368,.F.);
#370=CARTESIAN_POINT('',(0.175785178409674,-0.00968011659725421,0.0101764647077991));
#371=DIRECTION('',(0.00000000000000,-1.00000000000000,6.12323399573677E-17));
#372=DIRECTION('',(1.00000000000000,0.00000000000000,0.00000000000000));
#373=AXIS2_PLACEMENT_3D('',#370,#371,#372);
#374=CIRCLE('',#373,0.0100000000000000);
#375=EDGE_CURVE('',#331,#363,#374,.T.);
#376=ORIENTED_EDGE('',*,*,#375,.F.);
#377=ORIENTED_EDGE('',*,*,#336,.T.);
#378=EDGE_LOOP('',(#361,#369,#376,#377));
#379=FACE_OUTER_BOUND('',#378,.T.);
#380=CARTESIAN_POINT('',(0.175785178409674,-0.00968011659725421,0.0101764647077991));
#381=DIRECTION('',(1.38777878078145E-17,1.00000000000000,-6.47630097698008E-17));
#382=DIRECTION('',(1.00000000000000,-1.38777878078145E-17,8.98767307380710E-34));
#383=AXIS2_PLACEMENT_3D('',#380,#381,#382);
#384=CYLINDRICAL_SURFACE('',#383,0.0100000000000000);
#385=ADVANCED_FACE('',(#379),#384,.T.);
#386=CARTESIAN_POINT('',(0.192591143301041,5.99031988340275,0.241667370584961));
#387=DIRECTION('',(0.0293692544136100,5.98478132137684E-17,0.999568630407732));
#388=VECTOR('',#387,1.00000000000000);
#389=LINE('',#386,#388);
#390=EDGE_CURVE('',#354,#25,#389,.T.);
#391=ORIENTED_EDGE('',*,*,#390,.T.);
#392=ORIENTED_EDGE('',*,*,#56,.F.);
#393=CARTESIAN_POINT('',(0.192591143301041,-0.00968011659725419,0.241667370584961));
#394=DIRECTION('',(-0.0293692544136100,-5.98478132137684E-17,-0.999568630407732));
#395=VECTOR('',#394,1.00000000000000);
#396=LINE('',#393,#395);
#397=EDGE_CURVE('',#44,#363,#396,.T.);
#398=ORIENTED_EDGE('',*,*,#397,.T.);
#399=ORIENTED_EDGE('',*,*,#368,.T.);
#400=EDGE_LOOP('',(#391,#392,#398,#399));
#401=FACE_OUTER_BOUND('',#400,.T.);
#402=CARTESIAN_POINT('',(0.189186004007396,-0.00968011659725420,0.125775071374311));
#403=DIRECTION('',(0.999568630407732,-1.57738426626666E-17,-0.0293692544136100));
#404=DIRECTION('',(-0.0293692544136100,-5.98478132137684E-17,-0.999568630407732));
#405=AXIS2_PLACEMENT_3D('',#402,#403,#404);
#406=PLANE('',#405);
#407=ADVANCED_FACE('',(#401),#406,.T.);
#408=ORIENTED_EDGE('',*,*,#33,.F.);
#409=ORIENTED_EDGE('',*,*,#390,.F.);
#410=ORIENTED_EDGE('',*,*,#360,.F.);
#411=ORIENTED_EDGE('',*,*,#328,.F.);
#412=ORIENTED_EDGE('',*,*,#296,.F.);
#413=ORIENTED_EDGE('',*,*,#264,.F.);
#414=ORIENTED_EDGE('',*,*,#232,.F.);
#415=ORIENTED_EDGE('',*,*,#200,.F.);
#416=ORIENTED_EDGE('',*,*,#168,.F.);
#417=ORIENTED_EDGE('',*,*,#136,.F.);
#418=ORIENTED_EDGE('',*,*,#104,.F.);
#419=ORIENTED_EDGE('',*,*,#72,.F.);
#420=EDGE_LOOP('',(#408,#409,#410,#411,#412,#413,#414,#415,#416,#417,#418,#419));
#421=FACE_OUTER_BOUND('',#420,.T.);
#422=CARTESIAN_POINT('',(0.190464123041266,5.99031988340275,0.169275245883028));
#423=DIRECTION('',(-1.46739831375921E-17,-1.00000000000000,6.57312272349455E-17));
#424=DIRECTION('',(1.00000000000000,-1.46739831375921E-17,1.83027153337673E-67));
#425=AXIS2_PLACEMENT_3D('',#422,#423,#424);
#426=PLANE('',#425);
#427=ADVANCED_FACE('',(#421),#426,.F.);
#428=ORIENTED_EDGE('',*,*,#397,.F.);
#429=ORIENTED_EDGE('',*,*,#50,.T.);
#430=ORIENTED_EDGE('',*,*,#86,.T.);
#431=ORIENTED_EDGE('',*,*,#119,.T.);
#432=ORIENTED_EDGE('',*,*,#150,.F.);
#433=ORIENTED_EDGE('',*,*,#183,.T.);
#434=ORIENTED_EDGE('',*,*,#214,.F.);
#435=ORIENTED_EDGE('',*,*,#247,.F.);
#436=ORIENTED_EDGE('',*,*,#278,.T.);
#437=ORIENTED_EDGE('',*,*,#311,.T.);
#438=ORIENTED_EDGE('',*,*,#342,.T.);
#439=ORIENTED_EDGE('',*,*,#375,.T.);
#440=EDGE_LOOP('',(#428,#429,#430,#431,#432,#433,#434,#435,#436,#437,#438,#439));
#441=FACE_OUTER_BOUND('',#440,.T.);
#442=CARTESIAN_POINT('',(0.190464123041266,-0.00968011659725419,0.169275245883029));
#443=DIRECTION('',(-1.46739831375921E-17,-1.00000000000000,6.57312272349455E-17));
#444=DIRECTION('',(1.00000000000000,-1.46739831375921E-17,0.00000000000000));
#445=AXIS2_PLACEMENT_3D('',#442,#443,#444);
#446=PLANE('',#445);
#447=ADVANCED_FACE('',(#441),#446,.T.);
#448=CLOSED_SHELL('',(#65,#96,#129,#160,#193,#224,#257,#288,#321,#352,#385,#407,#427,#447));
#449=MANIFOLD_SOLID_BREP('',#448);
#450=COLOUR_RGB('',1.00000000000000,0.00000000000000,0.00000000000000);
#451=FILL_AREA_STYLE_COLOUR('',#450);
#452=FILL_AREA_STYLE('',(#451));
#453=SURFACE_STYLE_FILL_AREA(#452);
#454=SURFACE_SIDE_STYLE('',(#453));
#455=SURFACE_STYLE_USAGE(.BOTH.,#454);
#456=PRESENTATION_STYLE_ASSIGNMENT((#455));
#457=STYLED_ITEM('',(#456),#449);
#458=ADVANCED_BREP_SHAPE_REPRESENTATION('',(#449,#23),#18);
#459=PRODUCT('', '', ' ',(#2));
#460=PRODUCT_DEFINITION_FORMATION_WITH_SPECIFIED_SOURCE (' ', ' ', #459, .NOT_KNOWN.) ;
#461=PRODUCT_CATEGORY('part','') ;
#462=PRODUCT_RELATED_PRODUCT_CATEGORY('detail', ' ', (#459)) ;
#463=PRODUCT_CATEGORY_RELATIONSHIP(' ', ' ', #461, #462);
#464=PRODUCT_DEFINITION('', '', #460, #1);
#465=PRODUCT_DEFINITION_SHAPE('NONE', 'NONE', #464);
#466=SHAPE_DEFINITION_REPRESENTATION(#465, #458);
#467=PRESENTATION_LAYER_ASSIGNMENT('1','Unnamed [1]',(#449));
#468=MECHANICAL_DESIGN_GEOMETRIC_PRESENTATION_REPRESENTATION('',(#457), #18);
ENDSEC;
END-ISO-10303-21;
