ISO-10303-21;
HEADER;
FILE_DESCRIPTION((''),'2;1');
FILE_NAME('C:/Program Files/Kubotek/KeyCreatorPro.2021.SP0/STEP/SG2222.STP', '2021-03-04T13:37:16',(''), (''), 'KCM Version 2.0.6974.6974', 'KeyCreator Pro', '');
FILE_SCHEMA(('AUTOMOTIVE_DESIGN'));
ENDSEC;
DATA;
#1=PRODUCT_DEFINITION_CONTEXT('',#4,'design');
#2=PRODUCT_CONTEXT('',#4,'mechanical');
#3=APPLICATION_PROTOCOL_DEFINITION('International Standard','automotive_design',2001,#4);
#4=APPLICATION_CONTEXT('automotive design');
#10=DIMENSIONAL_EXPONENTS(1.0,0.0,0.0,0.0,0.0,0.0,0.0);
#11=DIMENSIONAL_EXPONENTS(0.0,0.0,0.0,0.0,0.0,0.0,0.0);
#12=(NAMED_UNIT(#10)LENGTH_UNIT()SI_UNIT(.MILLI.,.METRE.));
#13=(NAMED_UNIT(#11)PLANE_ANGLE_UNIT()SI_UNIT($,.RADIAN.));
#14=(NAMED_UNIT(#11)SOLID_ANGLE_UNIT()SI_UNIT($,.STERADIAN.));
#15=LENGTH_MEASURE_WITH_UNIT(LENGTH_MEASURE(25.4),#12);
#16= (CONVERSION_BASED_UNIT('INCH',#15)LENGTH_UNIT()NAMED_UNIT(#10));
#17=UNCERTAINTY_MEASURE_WITH_UNIT(LENGTH_MEASURE(1.0E-006),#16,'','');
#18=(GEOMETRIC_REPRESENTATION_CONTEXT(3)GLOBAL_UNCERTAINTY_ASSIGNED_CONTEXT((#17))GLOBAL_UNIT_ASSIGNED_CONTEXT((#16,#13,#14))REPRESENTATION_CONTEXT('NONE','WORKSPACE'));
#20=CARTESIAN_POINT('',(0.00000000000000,0.00000000000000,0.00000000000000));
#21=DIRECTION('',(0.00000000000000,0.00000000000000,1.00000000000000));
#22=DIRECTION('',(1.00000000000000,0.00000000000000,0.00000000000000));
#23=AXIS2_PLACEMENT_3D('',#20,#21,#22);
#24=CARTESIAN_POINT('',(0.0400000000000001,3.25000000000000,0.210000000000000));
#25=VERTEX_POINT('',#24);
#26=CARTESIAN_POINT('',(0.460000000000000,3.25000000000000,0.210000000000000));
#27=VERTEX_POINT('',#26);
#28=CARTESIAN_POINT('',(0.460000000000000,3.25000000000000,0.210000000000000));
#29=DIRECTION('',(1.00000000000000,0.00000000000000,0.00000000000000));
#30=VECTOR('',#29,1.00000000000000);
#31=LINE('',#28,#30);
#32=EDGE_CURVE('',#25,#27,#31,.T.);
#33=ORIENTED_EDGE('',*,*,#32,.T.);
#34=CARTESIAN_POINT('',(0.460000000000000,-2.75000000000000,0.210000000000000));
#35=VERTEX_POINT('',#34);
#36=CARTESIAN_POINT('',(0.460000000000000,0.250000000000000,0.210000000000000));
#37=DIRECTION('',(-3.00140402500188E-17,-1.00000000000000,9.25185853854297E-17));
#38=VECTOR('',#37,1.00000000000000);
#39=LINE('',#36,#38);
#40=EDGE_CURVE('',#27,#35,#39,.T.);
#41=ORIENTED_EDGE('',*,*,#40,.T.);
#42=CARTESIAN_POINT('',(0.0399999999999999,-2.75000000000000,0.210000000000000));
#43=VERTEX_POINT('',#42);
#44=CARTESIAN_POINT('',(0.460000000000000,-2.75000000000000,0.210000000000000));
#45=DIRECTION('',(-1.00000000000000,0.00000000000000,0.00000000000000));
#46=VECTOR('',#45,1.00000000000000);
#47=LINE('',#44,#46);
#48=EDGE_CURVE('',#35,#43,#47,.T.);
#49=ORIENTED_EDGE('',*,*,#48,.T.);
#50=CARTESIAN_POINT('',(0.0400000000000000,0.250000000000000,0.210000000000000));
#51=DIRECTION('',(3.00140402500188E-17,1.00000000000000,-9.25185853854297E-17));
#52=VECTOR('',#51,1.00000000000000);
#53=LINE('',#50,#52);
#54=EDGE_CURVE('',#43,#25,#53,.T.);
#55=ORIENTED_EDGE('',*,*,#54,.T.);
#56=EDGE_LOOP('',(#33,#41,#49,#55));
#57=FACE_OUTER_BOUND('',#56,.T.);
#58=CARTESIAN_POINT('',(0.250000000000000,0.250000000000000,0.210000000000000));
#59=DIRECTION('',(-0.00000000000000,-9.25185853854297E-17,-1.00000000000000));
#60=DIRECTION('',(-1.00000000000000,0.00000000000000,0.00000000000000));
#61=AXIS2_PLACEMENT_3D('',#58,#59,#60);
#62=PLANE('',#61);
#63=ADVANCED_FACE('',(#57),#62,.T.);
#64=CARTESIAN_POINT('',(0.460000000000000,3.25000000000000,-0.210000000000000));
#65=VERTEX_POINT('',#64);
#66=CARTESIAN_POINT('',(0.460000000000000,3.25000000000000,-0.210000000000000));
#67=DIRECTION('',(-0.00000000000000,-6.60847038467355E-17,-1.00000000000000));
#68=VECTOR('',#67,1.00000000000000);
#69=LINE('',#66,#68);
#70=EDGE_CURVE('',#27,#65,#69,.T.);
#71=ORIENTED_EDGE('',*,*,#70,.T.);
#72=CARTESIAN_POINT('',(0.460000000000000,-2.75000000000000,-0.210000000000000));
#73=VERTEX_POINT('',#72);
#74=CARTESIAN_POINT('',(0.460000000000000,0.250000000000000,-0.210000000000000));
#75=DIRECTION('',(3.00140402500188E-17,1.00000000000000,-9.25185853854297E-17));
#76=VECTOR('',#75,1.00000000000000);
#77=LINE('',#74,#76);
#78=EDGE_CURVE('',#73,#65,#77,.T.);
#79=ORIENTED_EDGE('',*,*,#78,.F.);
#80=CARTESIAN_POINT('',(0.460000000000000,-2.75000000000000,-0.210000000000000));
#81=DIRECTION('',(0.00000000000000,6.60847038467355E-17,1.00000000000000));
#82=VECTOR('',#81,1.00000000000000);
#83=LINE('',#80,#82);
#84=EDGE_CURVE('',#73,#35,#83,.T.);
#85=ORIENTED_EDGE('',*,*,#84,.T.);
#86=ORIENTED_EDGE('',*,*,#40,.F.);
#87=EDGE_LOOP('',(#71,#79,#85,#86));
#88=FACE_OUTER_BOUND('',#87,.T.);
#89=CARTESIAN_POINT('',(0.460000000000000,0.250000000000000,2.77555756156289E-17));
#90=DIRECTION('',(-1.00000000000000,3.00140402500188E-17,-1.98346896116649E-33));
#91=DIRECTION('',(0.00000000000000,6.60847038467355E-17,1.00000000000000));
#92=AXIS2_PLACEMENT_3D('',#89,#90,#91);
#93=PLANE('',#92);
#94=ADVANCED_FACE('',(#88),#93,.T.);
#95=CARTESIAN_POINT('',(0.0400000000000001,3.25000000000000,-0.210000000000000));
#96=VERTEX_POINT('',#95);
#97=CARTESIAN_POINT('',(0.0400000000000001,3.25000000000000,-0.210000000000000));
#98=DIRECTION('',(-1.00000000000000,0.00000000000000,0.00000000000000));
#99=VECTOR('',#98,1.00000000000000);
#100=LINE('',#97,#99);
#101=EDGE_CURVE('',#65,#96,#100,.T.);
#102=ORIENTED_EDGE('',*,*,#101,.T.);
#103=CARTESIAN_POINT('',(0.0399999999999999,-2.75000000000000,-0.210000000000000));
#104=VERTEX_POINT('',#103);
#105=CARTESIAN_POINT('',(0.0400000000000000,0.250000000000000,-0.210000000000000));
#106=DIRECTION('',(-3.00140402500188E-17,-1.00000000000000,9.25185853854297E-17));
#107=VECTOR('',#106,1.00000000000000);
#108=LINE('',#105,#107);
#109=EDGE_CURVE('',#96,#104,#108,.T.);
#110=ORIENTED_EDGE('',*,*,#109,.T.);
#111=CARTESIAN_POINT('',(0.0399999999999999,-2.75000000000000,-0.210000000000000));
#112=DIRECTION('',(1.00000000000000,0.00000000000000,0.00000000000000));
#113=VECTOR('',#112,1.00000000000000);
#114=LINE('',#111,#113);
#115=EDGE_CURVE('',#104,#73,#114,.T.);
#116=ORIENTED_EDGE('',*,*,#115,.T.);
#117=ORIENTED_EDGE('',*,*,#78,.T.);
#118=EDGE_LOOP('',(#102,#110,#116,#117));
#119=FACE_OUTER_BOUND('',#118,.T.);
#120=CARTESIAN_POINT('',(0.250000000000000,0.250000000000000,-0.210000000000000));
#121=DIRECTION('',(-0.00000000000000,9.25185853854297E-17,1.00000000000000));
#122=DIRECTION('',(1.00000000000000,0.00000000000000,0.00000000000000));
#123=AXIS2_PLACEMENT_3D('',#120,#121,#122);
#124=PLANE('',#123);
#125=ADVANCED_FACE('',(#119),#124,.T.);
#126=CARTESIAN_POINT('',(0.0400000000000001,3.25000000000000,0.210000000000000));
#127=DIRECTION('',(0.00000000000000,6.60847038467355E-17,1.00000000000000));
#128=VECTOR('',#127,1.00000000000000);
#129=LINE('',#126,#128);
#130=EDGE_CURVE('',#96,#25,#129,.T.);
#131=ORIENTED_EDGE('',*,*,#130,.T.);
#132=ORIENTED_EDGE('',*,*,#54,.F.);
#133=CARTESIAN_POINT('',(0.0399999999999999,-2.75000000000000,0.210000000000000));
#134=DIRECTION('',(0.00000000000000,-6.60847038467355E-17,-1.00000000000000));
#135=VECTOR('',#134,1.00000000000000);
#136=LINE('',#133,#135);
#137=EDGE_CURVE('',#43,#104,#136,.T.);
#138=ORIENTED_EDGE('',*,*,#137,.T.);
#139=ORIENTED_EDGE('',*,*,#109,.F.);
#140=EDGE_LOOP('',(#131,#132,#138,#139));
#141=FACE_OUTER_BOUND('',#140,.T.);
#142=CARTESIAN_POINT('',(0.0400000000000000,0.250000000000000,0.00000000000000));
#143=DIRECTION('',(1.00000000000000,-3.00140402500188E-17,1.98346896116649E-33));
#144=DIRECTION('',(0.00000000000000,-6.60847038467355E-17,-1.00000000000000));
#145=AXIS2_PLACEMENT_3D('',#142,#143,#144);
#146=PLANE('',#145);
#147=ADVANCED_FACE('',(#141),#146,.T.);
#148=CARTESIAN_POINT('',(9.00421207500564E-17,3.25000000000000,-0.250000000000000));
#149=VERTEX_POINT('',#148);
#150=CARTESIAN_POINT('',(0.500000000000000,3.25000000000000,-0.250000000000000));
#151=VERTEX_POINT('',#150);
#152=CARTESIAN_POINT('',(9.00421207500564E-17,3.25000000000000,-0.250000000000000));
#153=DIRECTION('',(1.00000000000000,0.00000000000000,0.00000000000000));
#154=VECTOR('',#153,1.00000000000000);
#155=LINE('',#152,#154);
#156=EDGE_CURVE('',#149,#151,#155,.T.);
#157=ORIENTED_EDGE('',*,*,#156,.T.);
#158=CARTESIAN_POINT('',(0.500000000000000,-2.75000000000000,-0.250000000000000));
#159=VERTEX_POINT('',#158);
#160=CARTESIAN_POINT('',(0.500000000000000,0.250000000000000,-0.250000000000000));
#161=DIRECTION('',(-3.00140402500188E-17,-1.00000000000000,9.25185853854297E-17));
#162=VECTOR('',#161,1.00000000000000);
#163=LINE('',#160,#162);
#164=EDGE_CURVE('',#151,#159,#163,.T.);
#165=ORIENTED_EDGE('',*,*,#164,.T.);
#166=CARTESIAN_POINT('',(-9.00421207500564E-17,-2.75000000000000,-0.250000000000000));
#167=VERTEX_POINT('',#166);
#168=CARTESIAN_POINT('',(-9.00421207500564E-17,-2.75000000000000,-0.250000000000000));
#169=DIRECTION('',(-1.00000000000000,0.00000000000000,0.00000000000000));
#170=VECTOR('',#169,1.00000000000000);
#171=LINE('',#168,#170);
#172=EDGE_CURVE('',#159,#167,#171,.T.);
#173=ORIENTED_EDGE('',*,*,#172,.T.);
#174=CARTESIAN_POINT('',(0.00000000000000,0.250000000000000,-0.250000000000000));
#175=DIRECTION('',(3.00140402500188E-17,1.00000000000000,-9.25185853854297E-17));
#176=VECTOR('',#175,1.00000000000000);
#177=LINE('',#174,#176);
#178=EDGE_CURVE('',#167,#149,#177,.T.);
#179=ORIENTED_EDGE('',*,*,#178,.T.);
#180=EDGE_LOOP('',(#157,#165,#173,#179));
#181=FACE_OUTER_BOUND('',#180,.T.);
#182=CARTESIAN_POINT('',(0.250000000000000,0.250000000000000,-0.250000000000000));
#183=DIRECTION('',(0.00000000000000,-9.25185853854297E-17,-1.00000000000000));
#184=DIRECTION('',(-1.00000000000000,-0.00000000000000,-0.00000000000000));
#185=AXIS2_PLACEMENT_3D('',#182,#183,#184);
#186=PLANE('',#185);
#187=ADVANCED_FACE('',(#181),#186,.T.);
#188=CARTESIAN_POINT('',(0.500000000000000,3.25000000000000,0.250000000000000));
#189=VERTEX_POINT('',#188);
#190=CARTESIAN_POINT('',(0.500000000000000,3.25000000000000,-0.250000000000000));
#191=DIRECTION('',(0.00000000000000,5.55111512312578E-17,1.00000000000000));
#192=VECTOR('',#191,1.00000000000000);
#193=LINE('',#190,#192);
#194=EDGE_CURVE('',#151,#189,#193,.T.);
#195=ORIENTED_EDGE('',*,*,#194,.T.);
#196=CARTESIAN_POINT('',(0.500000000000000,-2.75000000000000,0.250000000000000));
#197=VERTEX_POINT('',#196);
#198=CARTESIAN_POINT('',(0.500000000000000,0.250000000000000,0.250000000000000));
#199=DIRECTION('',(-3.00140402500188E-17,-1.00000000000000,9.25185853854297E-17));
#200=VECTOR('',#199,1.00000000000000);
#201=LINE('',#198,#200);
#202=EDGE_CURVE('',#189,#197,#201,.T.);
#203=ORIENTED_EDGE('',*,*,#202,.T.);
#204=CARTESIAN_POINT('',(0.500000000000000,-2.75000000000000,-0.250000000000000));
#205=DIRECTION('',(-0.00000000000000,-5.55111512312578E-17,-1.00000000000000));
#206=VECTOR('',#205,1.00000000000000);
#207=LINE('',#204,#206);
#208=EDGE_CURVE('',#197,#159,#207,.T.);
#209=ORIENTED_EDGE('',*,*,#208,.T.);
#210=ORIENTED_EDGE('',*,*,#164,.F.);
#211=EDGE_LOOP('',(#195,#203,#209,#210));
#212=FACE_OUTER_BOUND('',#211,.T.);
#213=CARTESIAN_POINT('',(0.500000000000000,0.250000000000000,0.00000000000000));
#214=DIRECTION('',(1.00000000000000,-3.00140402500188E-17,1.66611392737985E-33));
#215=DIRECTION('',(-0.00000000000000,-5.55111512312578E-17,-1.00000000000000));
#216=AXIS2_PLACEMENT_3D('',#213,#214,#215);
#217=PLANE('',#216);
#218=ADVANCED_FACE('',(#212),#217,.T.);
#219=CARTESIAN_POINT('',(9.00421207500564E-17,3.25000000000000,0.250000000000000));
#220=VERTEX_POINT('',#219);
#221=CARTESIAN_POINT('',(0.500000000000000,3.25000000000000,0.250000000000000));
#222=DIRECTION('',(-1.00000000000000,0.00000000000000,0.00000000000000));
#223=VECTOR('',#222,1.00000000000000);
#224=LINE('',#221,#223);
#225=EDGE_CURVE('',#189,#220,#224,.T.);
#226=ORIENTED_EDGE('',*,*,#225,.T.);
#227=CARTESIAN_POINT('',(-9.00421207500564E-17,-2.75000000000000,0.250000000000000));
#228=VERTEX_POINT('',#227);
#229=CARTESIAN_POINT('',(0.00000000000000,0.250000000000000,0.250000000000000));
#230=DIRECTION('',(-3.00140402500188E-17,-1.00000000000000,9.25185853854297E-17));
#231=VECTOR('',#230,1.00000000000000);
#232=LINE('',#229,#231);
#233=EDGE_CURVE('',#220,#228,#232,.T.);
#234=ORIENTED_EDGE('',*,*,#233,.T.);
#235=CARTESIAN_POINT('',(0.500000000000000,-2.75000000000000,0.250000000000000));
#236=DIRECTION('',(1.00000000000000,0.00000000000000,0.00000000000000));
#237=VECTOR('',#236,1.00000000000000);
#238=LINE('',#235,#237);
#239=EDGE_CURVE('',#228,#197,#238,.T.);
#240=ORIENTED_EDGE('',*,*,#239,.T.);
#241=ORIENTED_EDGE('',*,*,#202,.F.);
#242=EDGE_LOOP('',(#226,#234,#240,#241));
#243=FACE_OUTER_BOUND('',#242,.T.);
#244=CARTESIAN_POINT('',(0.250000000000000,0.250000000000000,0.250000000000000));
#245=DIRECTION('',(0.00000000000000,9.25185853854297E-17,1.00000000000000));
#246=DIRECTION('',(1.00000000000000,-0.00000000000000,-0.00000000000000));
#247=AXIS2_PLACEMENT_3D('',#244,#245,#246);
#248=PLANE('',#247);
#249=ADVANCED_FACE('',(#243),#248,.T.);
#250=CARTESIAN_POINT('',(9.00421207500564E-17,3.25000000000000,0.250000000000000));
#251=DIRECTION('',(0.00000000000000,-5.55111512312578E-17,-1.00000000000000));
#252=VECTOR('',#251,1.00000000000000);
#253=LINE('',#250,#252);
#254=EDGE_CURVE('',#220,#149,#253,.T.);
#255=ORIENTED_EDGE('',*,*,#254,.T.);
#256=ORIENTED_EDGE('',*,*,#178,.F.);
#257=CARTESIAN_POINT('',(-9.00421207500564E-17,-2.75000000000000,0.250000000000000));
#258=DIRECTION('',(0.00000000000000,5.55111512312578E-17,1.00000000000000));
#259=VECTOR('',#258,1.00000000000000);
#260=LINE('',#257,#259);
#261=EDGE_CURVE('',#167,#228,#260,.T.);
#262=ORIENTED_EDGE('',*,*,#261,.T.);
#263=ORIENTED_EDGE('',*,*,#233,.F.);
#264=EDGE_LOOP('',(#255,#256,#262,#263));
#265=FACE_OUTER_BOUND('',#264,.T.);
#266=CARTESIAN_POINT('',(0.00000000000000,0.250000000000000,0.00000000000000));
#267=DIRECTION('',(-1.00000000000000,3.00140402500188E-17,-1.66611392737985E-33));
#268=DIRECTION('',(-0.00000000000000,5.55111512312578E-17,1.00000000000000));
#269=AXIS2_PLACEMENT_3D('',#266,#267,#268);
#270=PLANE('',#269);
#271=ADVANCED_FACE('',(#265),#270,.T.);
#272=ORIENTED_EDGE('',*,*,#156,.F.);
#273=ORIENTED_EDGE('',*,*,#254,.F.);
#274=ORIENTED_EDGE('',*,*,#225,.F.);
#275=ORIENTED_EDGE('',*,*,#194,.F.);
#276=EDGE_LOOP('',(#272,#273,#274,#275));
#277=FACE_OUTER_BOUND('',#276,.T.);
#278=ORIENTED_EDGE('',*,*,#32,.F.);
#279=ORIENTED_EDGE('',*,*,#130,.F.);
#280=ORIENTED_EDGE('',*,*,#101,.F.);
#281=ORIENTED_EDGE('',*,*,#70,.F.);
#282=EDGE_LOOP('',(#278,#279,#280,#281));
#283=FACE_BOUND('',#282,.T.);
#284=CARTESIAN_POINT('',(0.0400000000000001,3.25000000000000,0.0788234999999997));
#285=DIRECTION('',(3.00140402500188E-17,1.00000000000000,-9.60987440967543E-17));
#286=DIRECTION('',(-1.00000000000000,3.00140402500188E-17,-2.50151070407770E-66));
#287=AXIS2_PLACEMENT_3D('',#284,#285,#286);
#288=PLANE('',#287);
#289=ADVANCED_FACE('',(#277,#283),#288,.T.);
#290=ORIENTED_EDGE('',*,*,#239,.F.);
#291=ORIENTED_EDGE('',*,*,#261,.F.);
#292=ORIENTED_EDGE('',*,*,#172,.F.);
#293=ORIENTED_EDGE('',*,*,#208,.F.);
#294=EDGE_LOOP('',(#290,#291,#292,#293));
#295=FACE_OUTER_BOUND('',#294,.T.);
#296=ORIENTED_EDGE('',*,*,#115,.F.);
#297=ORIENTED_EDGE('',*,*,#137,.F.);
#298=ORIENTED_EDGE('',*,*,#48,.F.);
#299=ORIENTED_EDGE('',*,*,#84,.F.);
#300=EDGE_LOOP('',(#296,#297,#298,#299));
#301=FACE_BOUND('',#300,.T.);
#302=CARTESIAN_POINT('',(0.0399999999999999,-2.75000000000000,0.0788235000000003));
#303=DIRECTION('',(3.00140402500188E-17,1.00000000000000,-9.60987440967543E-17));
#304=DIRECTION('',(-1.00000000000000,3.00140402500188E-17,-2.50151070407770E-66));
#305=AXIS2_PLACEMENT_3D('',#302,#303,#304);
#306=PLANE('',#305);
#307=ADVANCED_FACE('',(#295,#301),#306,.F.);
#308=CLOSED_SHELL('',(#63,#94,#125,#147,#187,#218,#249,#271,#289,#307));
#309=MANIFOLD_SOLID_BREP('',#308);
#310=COLOUR_RGB('',1.00000000000000,0.00000000000000,0.00000000000000);
#311=FILL_AREA_STYLE_COLOUR('',#310);
#312=FILL_AREA_STYLE('',(#311));
#313=SURFACE_STYLE_FILL_AREA(#312);
#314=SURFACE_SIDE_STYLE('',(#313));
#315=SURFACE_STYLE_USAGE(.BOTH.,#314);
#316=PRESENTATION_STYLE_ASSIGNMENT((#315));
#317=STYLED_ITEM('',(#316),#309);
#318=ADVANCED_BREP_SHAPE_REPRESENTATION('',(#309,#23),#18);
#319=PRODUCT('', '', ' ',(#2));
#320=PRODUCT_DEFINITION_FORMATION_WITH_SPECIFIED_SOURCE (' ', ' ', #319, .NOT_KNOWN.) ;
#321=PRODUCT_CATEGORY('part','') ;
#322=PRODUCT_RELATED_PRODUCT_CATEGORY('detail', ' ', (#319)) ;
#323=PRODUCT_CATEGORY_RELATIONSHIP(' ', ' ', #321, #322);
#324=PRODUCT_DEFINITION('', '', #320, #1);
#325=PRODUCT_DEFINITION_SHAPE('NONE', 'NONE', #324);
#326=SHAPE_DEFINITION_REPRESENTATION(#325, #318);
#327=PRESENTATION_LAYER_ASSIGNMENT('1','Unnamed [1]',(#309));
#328=MECHANICAL_DESIGN_GEOMETRIC_PRESENTATION_REPRESENTATION('',(#317), #18);
ENDSEC;
END-ISO-10303-21;
