ISO-10303-21;
HEADER;
FILE_DESCRIPTION(('', 'CAx-IF Rec.Pracs.---Representation and Presentation of Product Manufacturing Information (PMI)---4.0---2014-10-13'),'2;1');
FILE_NAME('C:/Program Files/Kubotek/KeyCreatorPro.2021.SP2/STEP/SG2212.STP', '2021-08-04T20:01:35',(''), (''), 'Kubotek Kosmos Version 3.0.10279.10279', 'KeyCreator Pro', '');
FILE_SCHEMA(('AP242_MANAGED_MODEL_BASED_3D_ENGINEERING_MIM_LF  { 1 0 10303 442 1 1 4 }'));
ENDSEC;
DATA;
#1=PRODUCT_DEFINITION_CONTEXT('',#4,'design');
#2=PRODUCT_CONTEXT('',#4,'mechanical');
#3=APPLICATION_PROTOCOL_DEFINITION('international standard','ap242_managed_model_based_3d_engineering',2011,#4);
#4=APPLICATION_CONTEXT('managed model based 3d engineering');
#10=DIMENSIONAL_EXPONENTS(1.0,0.0,0.0,0.0,0.0,0.0,0.0);
#11=DIMENSIONAL_EXPONENTS(0.0,0.0,0.0,0.0,0.0,0.0,0.0);
#12=(LENGTH_UNIT()NAMED_UNIT(*)SI_UNIT(.MILLI.,.METRE.));
#13=(NAMED_UNIT(*)PLANE_ANGLE_UNIT()SI_UNIT($,.RADIAN.));
#14=(NAMED_UNIT(*)SI_UNIT($,.STERADIAN.)SOLID_ANGLE_UNIT());
#15=LENGTH_MEASURE_WITH_UNIT(LENGTH_MEASURE(25.4),#12);
#16= (CONVERSION_BASED_UNIT('INCH',#15)LENGTH_UNIT()NAMED_UNIT(#10));
#17=UNCERTAINTY_MEASURE_WITH_UNIT(LENGTH_MEASURE(1.0E-006),#16,'','');
#18=(GEOMETRIC_REPRESENTATION_CONTEXT(3)GLOBAL_UNCERTAINTY_ASSIGNED_CONTEXT((#17))GLOBAL_UNIT_ASSIGNED_CONTEXT((#16,#13,#14))REPRESENTATION_CONTEXT('NONE','WORKSPACE'));
#20=CARTESIAN_POINT('',(0.00000000000000,0.00000000000000,0.00000000000000));
#21=DIRECTION('',(0.00000000000000,0.00000000000000,1.00000000000000));
#22=DIRECTION('',(1.00000000000000,0.00000000000000,0.00000000000000));
#23=AXIS2_PLACEMENT_3D('',#20,#21,#22);
#24=CARTESIAN_POINT('',(0.116247005618940,-3.13900172214174,0.0808069312698048));
#25=VERTEX_POINT('',#24);
#26=CARTESIAN_POINT('',(0.0877626170659817,-3.13900172214174,-0.215614743555590));
#27=VERTEX_POINT('',#26);
#28=CARTESIAN_POINT('',(0.486017999999991,-3.13900172214174,-0.104305326666964));
#29=DIRECTION('',(0.00000000000000,-1.00000000000000,6.12323399573677E-17));
#30=DIRECTION('',(1.00000000000000,0.00000000000000,0.00000000000000));
#31=AXIS2_PLACEMENT_3D('',#28,#29,#30);
#32=CIRCLE('',#31,0.413518000000000);
#33=EDGE_CURVE('',#25,#27,#32,.T.);
#34=ORIENTED_EDGE('',*,*,#33,.T.);
#35=CARTESIAN_POINT('',(0.0877626170659992,2.86099827785826,-0.215614743555588));
#36=VERTEX_POINT('',#35);
#37=CARTESIAN_POINT('',(0.0877626170659905,-0.139001722141739,-0.215614743555589));
#38=DIRECTION('',(2.91433543964104E-15,1.00000000000000,2.12792746386488E-16));
#39=VECTOR('',#38,1.00000000000000);
#40=LINE('',#37,#39);
#41=EDGE_CURVE('',#27,#36,#40,.T.);
#42=ORIENTED_EDGE('',*,*,#41,.T.);
#43=CARTESIAN_POINT('',(0.116247005618958,2.86099827785826,0.0808069312698061));
#44=VERTEX_POINT('',#43);
#45=CARTESIAN_POINT('',(0.486018000000008,2.86099827785826,-0.104305326666963));
#46=DIRECTION('',(0.00000000000000,1.00000000000000,-6.12323399573677E-17));
#47=DIRECTION('',(1.00000000000000,0.00000000000000,0.00000000000000));
#48=AXIS2_PLACEMENT_3D('',#45,#46,#47);
#49=CIRCLE('',#48,0.413518000000000);
#50=EDGE_CURVE('',#36,#44,#49,.T.);
#51=ORIENTED_EDGE('',*,*,#50,.T.);
#52=CARTESIAN_POINT('',(0.116247005618949,-0.139001722141739,0.0808069312698055));
#53=DIRECTION('',(2.91433543964104E-15,1.00000000000000,2.12792746386488E-16));
#54=VECTOR('',#53,1.00000000000000);
#55=LINE('',#52,#54);
#56=EDGE_CURVE('',#25,#44,#55,.T.);
#57=ORIENTED_EDGE('',*,*,#56,.F.);
#58=EDGE_LOOP('',(#34,#42,#51,#57));
#59=FACE_OUTER_BOUND('',#58,.T.);
#60=CARTESIAN_POINT('',(0.486018000000000,-0.139001722141739,-0.104305326666964));
#61=DIRECTION('',(-2.91433543964104E-15,-1.00000000000000,-2.12792746386488E-16));
#62=DIRECTION('',(1.00000000000000,-2.91433543964104E-15,-6.20149442092690E-31));
#63=AXIS2_PLACEMENT_3D('',#60,#61,#62);
#64=CYLINDRICAL_SURFACE('',#63,0.413518000000000);
#65=ADVANCED_FACE('',(#59),#64,.F.);
#66=CARTESIAN_POINT('',(0.0492389849209230,-3.13900172214174,-0.226381812160934));
#67=VERTEX_POINT('',#66);
#68=CARTESIAN_POINT('',(0.0685008009934524,-3.13900172214174,-0.220998277858262));
#69=DIRECTION('',(0.00000000000000,1.00000000000000,-6.12323399573677E-17));
#70=DIRECTION('',(1.00000000000000,0.00000000000000,0.00000000000000));
#71=AXIS2_PLACEMENT_3D('',#68,#69,#70);
#72=CIRCLE('',#71,0.0200000000000000);
#73=EDGE_CURVE('',#27,#67,#72,.T.);
#74=ORIENTED_EDGE('',*,*,#73,.T.);
#75=CARTESIAN_POINT('',(0.0492389849209405,2.86099827785826,-0.226381812160933));
#76=VERTEX_POINT('',#75);
#77=CARTESIAN_POINT('',(0.0492389849209318,-0.139001722141739,-0.226381812160934));
#78=DIRECTION('',(-2.91433543964104E-15,-1.00000000000000,-2.12792746386488E-16));
#79=VECTOR('',#78,1.00000000000000);
#80=LINE('',#77,#79);
#81=EDGE_CURVE('',#76,#67,#80,.T.);
#82=ORIENTED_EDGE('',*,*,#81,.F.);
#83=CARTESIAN_POINT('',(0.0685008009934699,2.86099827785826,-0.220998277858261));
#84=DIRECTION('',(0.00000000000000,-1.00000000000000,6.12323399573677E-17));
#85=DIRECTION('',(1.00000000000000,0.00000000000000,0.00000000000000));
#86=AXIS2_PLACEMENT_3D('',#83,#84,#85);
#87=CIRCLE('',#86,0.0200000000000000);
#88=EDGE_CURVE('',#76,#36,#87,.T.);
#89=ORIENTED_EDGE('',*,*,#88,.T.);
#90=ORIENTED_EDGE('',*,*,#41,.F.);
#91=EDGE_LOOP('',(#74,#82,#89,#90));
#92=FACE_OUTER_BOUND('',#91,.T.);
#93=CARTESIAN_POINT('',(0.0685008009934611,-0.139001722141739,-0.220998277858261));
#94=DIRECTION('',(-2.91433543964104E-15,-1.00000000000000,-2.12792746386488E-16));
#95=DIRECTION('',(-0.269176715133622,0.00000000000000,0.963090803626466));
#96=AXIS2_PLACEMENT_3D('',#93,#94,#95);
#97=CYLINDRICAL_SURFACE('',#96,0.0200000000000000);
#98=ADVANCED_FACE('',(#92),#97,.T.);
#99=CARTESIAN_POINT('',(0.0804786961977250,-3.13900172214174,0.0987130207688611));
#100=VERTEX_POINT('',#99);
#101=CARTESIAN_POINT('',(0.486017999999991,-3.13900172214174,-0.104305326666964));
#102=DIRECTION('',(0.00000000000000,1.00000000000000,-6.12323399573677E-17));
#103=DIRECTION('',(1.00000000000000,0.00000000000000,0.00000000000000));
#104=AXIS2_PLACEMENT_3D('',#101,#102,#103);
#105=CIRCLE('',#104,0.453518000000000);
#106=EDGE_CURVE('',#67,#100,#105,.T.);
#107=ORIENTED_EDGE('',*,*,#106,.T.);
#108=CARTESIAN_POINT('',(0.0804786961977425,2.86099827785826,0.0987130207688624));
#109=VERTEX_POINT('',#108);
#110=CARTESIAN_POINT('',(0.0804786961977337,-0.139001722141739,0.0987130207688618));
#111=DIRECTION('',(2.91433543964104E-15,1.00000000000000,2.12792746386488E-16));
#112=VECTOR('',#111,1.00000000000000);
#113=LINE('',#110,#112);
#114=EDGE_CURVE('',#100,#109,#113,.T.);
#115=ORIENTED_EDGE('',*,*,#114,.T.);
#116=CARTESIAN_POINT('',(0.486018000000008,2.86099827785826,-0.104305326666963));
#117=DIRECTION('',(0.00000000000000,-1.00000000000000,6.12323399573677E-17));
#118=DIRECTION('',(1.00000000000000,0.00000000000000,0.00000000000000));
#119=AXIS2_PLACEMENT_3D('',#116,#117,#118);
#120=CIRCLE('',#119,0.453518000000000);
#121=EDGE_CURVE('',#109,#76,#120,.T.);
#122=ORIENTED_EDGE('',*,*,#121,.T.);
#123=ORIENTED_EDGE('',*,*,#81,.T.);
#124=EDGE_LOOP('',(#107,#115,#122,#123));
#125=FACE_OUTER_BOUND('',#124,.T.);
#126=CARTESIAN_POINT('',(0.486018000000000,-0.139001722141739,-0.104305326666964));
#127=DIRECTION('',(-2.91433543964104E-15,-1.00000000000000,-2.12792746386488E-16));
#128=DIRECTION('',(1.00000000000000,-2.91433543964104E-15,-6.20149442092690E-31));
#129=AXIS2_PLACEMENT_3D('',#126,#127,#128);
#130=CYLINDRICAL_SURFACE('',#129,0.453518000000000);
#131=ADVANCED_FACE('',(#125),#130,.T.);
#132=CARTESIAN_POINT('',(-0.0804786961977423,-3.13900172214174,0.0987130207688611));
#133=VERTEX_POINT('',#132);
#134=CARTESIAN_POINT('',(-8.74300631892311E-15,-3.13900172214174,0.139001722141738));
#135=DIRECTION('',(0.00000000000000,-1.00000000000000,6.12323399573676E-17));
#136=DIRECTION('',(1.00000000000000,0.00000000000000,0.00000000000000));
#137=AXIS2_PLACEMENT_3D('',#134,#135,#136);
#138=CIRCLE('',#137,0.0900000000000000);
#139=EDGE_CURVE('',#100,#133,#138,.T.);
#140=ORIENTED_EDGE('',*,*,#139,.T.);
#141=CARTESIAN_POINT('',(-0.0804786961977248,2.86099827785826,0.0987130207688624));
#142=VERTEX_POINT('',#141);
#143=CARTESIAN_POINT('',(-0.0804786961977335,-0.139001722141739,0.0987130207688618));
#144=DIRECTION('',(-2.91433543964104E-15,-1.00000000000000,-2.12792746386488E-16));
#145=VECTOR('',#144,1.00000000000000);
#146=LINE('',#143,#145);
#147=EDGE_CURVE('',#142,#133,#146,.T.);
#148=ORIENTED_EDGE('',*,*,#147,.F.);
#149=CARTESIAN_POINT('',(8.74300631892311E-15,2.86099827785826,0.139001722141739));
#150=DIRECTION('',(0.00000000000000,1.00000000000000,-6.12323399573676E-17));
#151=DIRECTION('',(1.00000000000000,0.00000000000000,0.00000000000000));
#152=AXIS2_PLACEMENT_3D('',#149,#150,#151);
#153=CIRCLE('',#152,0.0900000000000000);
#154=EDGE_CURVE('',#142,#109,#153,.T.);
#155=ORIENTED_EDGE('',*,*,#154,.T.);
#156=ORIENTED_EDGE('',*,*,#114,.F.);
#157=EDGE_LOOP('',(#140,#148,#155,#156));
#158=FACE_OUTER_BOUND('',#157,.T.);
#159=CARTESIAN_POINT('',(0.00000000000000,-0.139001722141739,0.139001722141739));
#160=DIRECTION('',(-2.91433543964104E-15,-1.00000000000000,-2.12792746386488E-16));
#161=DIRECTION('',(0.00000000000000,0.00000000000000,-1.00000000000000));
#162=AXIS2_PLACEMENT_3D('',#159,#160,#161);
#163=CYLINDRICAL_SURFACE('',#162,0.0900000000000000);
#164=ADVANCED_FACE('',(#158),#163,.F.);
#165=CARTESIAN_POINT('',(-0.0492389849209414,-3.13900172214174,-0.226381812160934));
#166=VERTEX_POINT('',#165);
#167=CARTESIAN_POINT('',(-0.486018000000008,-3.13900172214174,-0.104305326666964));
#168=DIRECTION('',(0.00000000000000,1.00000000000000,-6.12323399573677E-17));
#169=DIRECTION('',(1.00000000000000,0.00000000000000,0.00000000000000));
#170=AXIS2_PLACEMENT_3D('',#167,#168,#169);
#171=CIRCLE('',#170,0.453518000000000);
#172=EDGE_CURVE('',#133,#166,#171,.T.);
#173=ORIENTED_EDGE('',*,*,#172,.T.);
#174=CARTESIAN_POINT('',(-0.0492389849209239,2.86099827785826,-0.226381812160933));
#175=VERTEX_POINT('',#174);
#176=CARTESIAN_POINT('',(-0.0492389849209327,-0.139001722141739,-0.226381812160934));
#177=DIRECTION('',(-2.91433543964104E-15,-1.00000000000000,-2.12792746386488E-16));
#178=VECTOR('',#177,1.00000000000000);
#179=LINE('',#176,#178);
#180=EDGE_CURVE('',#175,#166,#179,.T.);
#181=ORIENTED_EDGE('',*,*,#180,.F.);
#182=CARTESIAN_POINT('',(-0.486017999999991,2.86099827785826,-0.104305326666963));
#183=DIRECTION('',(0.00000000000000,-1.00000000000000,6.12323399573677E-17));
#184=DIRECTION('',(1.00000000000000,0.00000000000000,0.00000000000000));
#185=AXIS2_PLACEMENT_3D('',#182,#183,#184);
#186=CIRCLE('',#185,0.453518000000000);
#187=EDGE_CURVE('',#175,#142,#186,.T.);
#188=ORIENTED_EDGE('',*,*,#187,.T.);
#189=ORIENTED_EDGE('',*,*,#147,.T.);
#190=EDGE_LOOP('',(#173,#181,#188,#189));
#191=FACE_OUTER_BOUND('',#190,.T.);
#192=CARTESIAN_POINT('',(-0.486018000000000,-0.139001722141739,-0.104305326666963));
#193=DIRECTION('',(-2.91433543964104E-15,-1.00000000000000,-2.12792746386488E-16));
#194=DIRECTION('',(-0.995414688817447,2.93762900160564E-15,-0.0956535273080133));
#195=AXIS2_PLACEMENT_3D('',#192,#193,#194);
#196=CYLINDRICAL_SURFACE('',#195,0.453518000000000);
#197=ADVANCED_FACE('',(#191),#196,.T.);
#198=CARTESIAN_POINT('',(-0.0877626170660001,-3.13900172214174,-0.215614743555590));
#199=VERTEX_POINT('',#198);
#200=CARTESIAN_POINT('',(-0.0685008009934708,-3.13900172214174,-0.220998277858262));
#201=DIRECTION('',(0.00000000000000,1.00000000000000,-6.12323399573677E-17));
#202=DIRECTION('',(1.00000000000000,0.00000000000000,0.00000000000000));
#203=AXIS2_PLACEMENT_3D('',#200,#201,#202);
#204=CIRCLE('',#203,0.0200000000000000);
#205=EDGE_CURVE('',#166,#199,#204,.T.);
#206=ORIENTED_EDGE('',*,*,#205,.T.);
#207=CARTESIAN_POINT('',(-0.0877626170659826,2.86099827785826,-0.215614743555588));
#208=VERTEX_POINT('',#207);
#209=CARTESIAN_POINT('',(-0.0877626170659913,-0.139001722141739,-0.215614743555589));
#210=DIRECTION('',(-2.91433543964104E-15,-1.00000000000000,-2.12792746386488E-16));
#211=VECTOR('',#210,1.00000000000000);
#212=LINE('',#209,#211);
#213=EDGE_CURVE('',#208,#199,#212,.T.);
#214=ORIENTED_EDGE('',*,*,#213,.F.);
#215=CARTESIAN_POINT('',(-0.0685008009934533,2.86099827785826,-0.220998277858261));
#216=DIRECTION('',(0.00000000000000,-1.00000000000000,6.12323399573677E-17));
#217=DIRECTION('',(1.00000000000000,0.00000000000000,0.00000000000000));
#218=AXIS2_PLACEMENT_3D('',#215,#216,#217);
#219=CIRCLE('',#218,0.0200000000000000);
#220=EDGE_CURVE('',#208,#175,#219,.T.);
#221=ORIENTED_EDGE('',*,*,#220,.T.);
#222=ORIENTED_EDGE('',*,*,#180,.T.);
#223=EDGE_LOOP('',(#206,#214,#221,#222));
#224=FACE_OUTER_BOUND('',#223,.T.);
#225=CARTESIAN_POINT('',(-0.0685008009934620,-0.139001722141739,-0.220998277858261));
#226=DIRECTION('',(-2.91433543964104E-15,-1.00000000000000,-2.12792746386488E-16));
#227=DIRECTION('',(1.00000000000000,-2.91433543964104E-15,-6.20149442092690E-31));
#228=AXIS2_PLACEMENT_3D('',#225,#226,#227);
#229=CYLINDRICAL_SURFACE('',#228,0.0200000000000000);
#230=ADVANCED_FACE('',(#224),#229,.T.);
#231=CARTESIAN_POINT('',(-0.116247005618957,-3.13900172214174,0.0808069312698047));
#232=VERTEX_POINT('',#231);
#233=CARTESIAN_POINT('',(-0.486018000000008,-3.13900172214174,-0.104305326666964));
#234=DIRECTION('',(0.00000000000000,-1.00000000000000,6.12323399573677E-17));
#235=DIRECTION('',(1.00000000000000,0.00000000000000,0.00000000000000));
#236=AXIS2_PLACEMENT_3D('',#233,#234,#235);
#237=CIRCLE('',#236,0.413518000000000);
#238=EDGE_CURVE('',#199,#232,#237,.T.);
#239=ORIENTED_EDGE('',*,*,#238,.T.);
#240=CARTESIAN_POINT('',(-0.116247005618940,2.86099827785826,0.0808069312698060));
#241=VERTEX_POINT('',#240);
#242=CARTESIAN_POINT('',(-0.116247005618949,-0.139001722141739,0.0808069312698054));
#243=DIRECTION('',(2.91433543964104E-15,1.00000000000000,2.12792746386488E-16));
#244=VECTOR('',#243,1.00000000000000);
#245=LINE('',#242,#244);
#246=EDGE_CURVE('',#232,#241,#245,.T.);
#247=ORIENTED_EDGE('',*,*,#246,.T.);
#248=CARTESIAN_POINT('',(-0.486017999999991,2.86099827785826,-0.104305326666963));
#249=DIRECTION('',(0.00000000000000,1.00000000000000,-6.12323399573677E-17));
#250=DIRECTION('',(1.00000000000000,0.00000000000000,0.00000000000000));
#251=AXIS2_PLACEMENT_3D('',#248,#249,#250);
#252=CIRCLE('',#251,0.413518000000000);
#253=EDGE_CURVE('',#241,#208,#252,.T.);
#254=ORIENTED_EDGE('',*,*,#253,.T.);
#255=ORIENTED_EDGE('',*,*,#213,.T.);
#256=EDGE_LOOP('',(#239,#247,#254,#255));
#257=FACE_OUTER_BOUND('',#256,.T.);
#258=CARTESIAN_POINT('',(-0.486018000000000,-0.139001722141739,-0.104305326666963));
#259=DIRECTION('',(-2.91433543964104E-15,-1.00000000000000,-2.12792746386488E-16));
#260=DIRECTION('',(-0.995414688817447,2.95330633028713E-15,-0.0956535273080131));
#261=AXIS2_PLACEMENT_3D('',#258,#259,#260);
#262=CYLINDRICAL_SURFACE('',#261,0.413518000000000);
#263=ADVANCED_FACE('',(#257),#262,.F.);
#264=CARTESIAN_POINT('',(-8.74300631892311E-15,-3.13900172214174,0.139001722141738));
#265=DIRECTION('',(0.00000000000000,1.00000000000000,-6.12323399573677E-17));
#266=DIRECTION('',(1.00000000000000,0.00000000000000,0.00000000000000));
#267=AXIS2_PLACEMENT_3D('',#264,#265,#266);
#268=CIRCLE('',#267,0.130000000000000);
#269=EDGE_CURVE('',#232,#25,#268,.T.);
#270=ORIENTED_EDGE('',*,*,#269,.T.);
#271=ORIENTED_EDGE('',*,*,#56,.T.);
#272=CARTESIAN_POINT('',(8.74300631892311E-15,2.86099827785826,0.139001722141739));
#273=DIRECTION('',(0.00000000000000,-1.00000000000000,6.12323399573677E-17));
#274=DIRECTION('',(1.00000000000000,0.00000000000000,0.00000000000000));
#275=AXIS2_PLACEMENT_3D('',#272,#273,#274);
#276=CIRCLE('',#275,0.130000000000000);
#277=EDGE_CURVE('',#44,#241,#276,.T.);
#278=ORIENTED_EDGE('',*,*,#277,.T.);
#279=ORIENTED_EDGE('',*,*,#246,.F.);
#280=EDGE_LOOP('',(#270,#271,#278,#279));
#281=FACE_OUTER_BOUND('',#280,.T.);
#282=CARTESIAN_POINT('',(0.00000000000000,-0.139001722141739,0.139001722141739));
#283=DIRECTION('',(-2.91433543964104E-15,-1.00000000000000,-2.12792746386488E-16));
#284=DIRECTION('',(0.00000000000000,0.00000000000000,-1.00000000000000));
#285=AXIS2_PLACEMENT_3D('',#282,#283,#284);
#286=CYLINDRICAL_SURFACE('',#285,0.130000000000000);
#287=ADVANCED_FACE('',(#281),#286,.T.);
#288=ORIENTED_EDGE('',*,*,#33,.F.);
#289=ORIENTED_EDGE('',*,*,#269,.F.);
#290=ORIENTED_EDGE('',*,*,#238,.F.);
#291=ORIENTED_EDGE('',*,*,#205,.F.);
#292=ORIENTED_EDGE('',*,*,#172,.F.);
#293=ORIENTED_EDGE('',*,*,#139,.F.);
#294=ORIENTED_EDGE('',*,*,#106,.F.);
#295=ORIENTED_EDGE('',*,*,#73,.F.);
#296=EDGE_LOOP('',(#288,#289,#290,#291,#292,#293,#294,#295));
#297=FACE_OUTER_BOUND('',#296,.T.);
#298=CARTESIAN_POINT('',(-0.128636482821859,-3.13900172214174,0.120222603759242));
#299=DIRECTION('',(-2.91318276466407E-15,-1.00000000000000,-2.11520831905051E-16));
#300=DIRECTION('',(1.00000000000000,-2.91318276466407E-15,-5.26506366152892E-60));
#301=AXIS2_PLACEMENT_3D('',#298,#299,#300);
#302=PLANE('',#301);
#303=ADVANCED_FACE('',(#297),#302,.T.);
#304=ORIENTED_EDGE('',*,*,#253,.F.);
#305=ORIENTED_EDGE('',*,*,#277,.F.);
#306=ORIENTED_EDGE('',*,*,#50,.F.);
#307=ORIENTED_EDGE('',*,*,#88,.F.);
#308=ORIENTED_EDGE('',*,*,#121,.F.);
#309=ORIENTED_EDGE('',*,*,#154,.F.);
#310=ORIENTED_EDGE('',*,*,#187,.F.);
#311=ORIENTED_EDGE('',*,*,#220,.F.);
#312=EDGE_LOOP('',(#304,#305,#306,#307,#308,#309,#310,#311));
#313=FACE_OUTER_BOUND('',#312,.T.);
#314=CARTESIAN_POINT('',(-0.128636482821842,2.86099827785826,0.120222603759243));
#315=DIRECTION('',(-2.91318276466407E-15,-1.00000000000000,-2.11520831905051E-16));
#316=DIRECTION('',(1.00000000000000,-2.91318276466407E-15,-5.26506366152892E-60));
#317=AXIS2_PLACEMENT_3D('',#314,#315,#316);
#318=PLANE('',#317);
#319=ADVANCED_FACE('',(#313),#318,.F.);
#320=CLOSED_SHELL('',(#65,#98,#131,#164,#197,#230,#263,#287,#303,#319));
#321=MANIFOLD_SOLID_BREP('',#320);
#322=COLOUR_RGB('',1.00000000000000,0.00000000000000,0.00000000000000);
#323=FILL_AREA_STYLE_COLOUR('',#322);
#324=FILL_AREA_STYLE('',(#323));
#325=SURFACE_STYLE_FILL_AREA(#324);
#326=SURFACE_SIDE_STYLE('',(#325));
#327=SURFACE_STYLE_USAGE(.BOTH.,#326);
#328=PRESENTATION_STYLE_ASSIGNMENT((#327));
#329=STYLED_ITEM('',(#328),#321);
#330=ADVANCED_BREP_SHAPE_REPRESENTATION('',(#321,#23),#18);
#331=PRODUCT('','','',(#2));
#332=PRODUCT_DEFINITION_FORMATION_WITH_SPECIFIED_SOURCE('','',#331,.NOT_KNOWN.);
#333=PRODUCT_CATEGORY('part','');
#334=PRODUCT_RELATED_PRODUCT_CATEGORY('detail','',(#331));
#335=PRODUCT_CATEGORY_RELATIONSHIP('','',#333,#334);
#336=PRODUCT_DEFINITION('','',#332,#1);
#337=PRODUCT_DEFINITION_SHAPE('NONE','NONE',#336);
#338=SHAPE_DEFINITION_REPRESENTATION(#337,#330);
#339=PRESENTATION_LAYER_ASSIGNMENT('1','Unnamed [1]',(#321));
ENDSEC;
END-ISO-10303-21;
