ISO-10303-21;
HEADER;
FILE_DESCRIPTION((''),'2;1');
FILE_NAME('C:/Program Files/Kubotek/KeyCreatorPro.2021.SP0/STEP/SG2187.STP', '2021-02-09T21:00:14',(''), (''), 'KCM Version 2.0.6974.6974', 'KeyCreator Pro', '');
FILE_SCHEMA(('AUTOMOTIVE_DESIGN'));
ENDSEC;
DATA;
#1=PRODUCT_DEFINITION_CONTEXT('',#4,'design');
#2=PRODUCT_CONTEXT('',#4,'mechanical');
#3=APPLICATION_PROTOCOL_DEFINITION('International Standard','automotive_design',2001,#4);
#4=APPLICATION_CONTEXT('automotive design');
#10=DIMENSIONAL_EXPONENTS(1.0,0.0,0.0,0.0,0.0,0.0,0.0);
#11=DIMENSIONAL_EXPONENTS(0.0,0.0,0.0,0.0,0.0,0.0,0.0);
#12=(NAMED_UNIT(#10)LENGTH_UNIT()SI_UNIT(.MILLI.,.METRE.));
#13=(NAMED_UNIT(#11)PLANE_ANGLE_UNIT()SI_UNIT($,.RADIAN.));
#14=(NAMED_UNIT(#11)SOLID_ANGLE_UNIT()SI_UNIT($,.STERADIAN.));
#15=LENGTH_MEASURE_WITH_UNIT(LENGTH_MEASURE(25.4),#12);
#16= (CONVERSION_BASED_UNIT('INCH',#15)LENGTH_UNIT()NAMED_UNIT(#10));
#17=UNCERTAINTY_MEASURE_WITH_UNIT(LENGTH_MEASURE(1.0E-006),#16,'','');
#18=(GEOMETRIC_REPRESENTATION_CONTEXT(3)GLOBAL_UNCERTAINTY_ASSIGNED_CONTEXT((#17))GLOBAL_UNIT_ASSIGNED_CONTEXT((#16,#13,#14))REPRESENTATION_CONTEXT('NONE','WORKSPACE'));
#20=CARTESIAN_POINT('',(0.00000000000000,0.00000000000000,0.00000000000000));
#21=DIRECTION('',(0.00000000000000,0.00000000000000,1.00000000000000));
#22=DIRECTION('',(1.00000000000000,0.00000000000000,0.00000000000000));
#23=AXIS2_PLACEMENT_3D('',#20,#21,#22);
#24=CARTESIAN_POINT('',(0.00732595834106609,0.750000000000000,-0.600000000000000));
#25=VERTEX_POINT('',#24);
#26=CARTESIAN_POINT('',(0.00732595834106609,6.75000000000000,-0.600000000000000));
#27=VERTEX_POINT('',#26);
#28=CARTESIAN_POINT('',(0.00732595834106609,0.750000000000000,-0.600000000000000));
#29=DIRECTION('',(9.06420715631261E-33,1.00000000000000,7.40148683083438E-17));
#30=VECTOR('',#29,1.00000000000000);
#31=LINE('',#28,#30);
#32=EDGE_CURVE('',#25,#27,#31,.T.);
#33=ORIENTED_EDGE('',*,*,#32,.T.);
#34=CARTESIAN_POINT('',(0.00732595834106609,6.75000000000000,-2.10000000000000));
#35=VERTEX_POINT('',#34);
#36=CARTESIAN_POINT('',(0.00732595834106609,6.75000000000000,-0.600000000000000));
#37=DIRECTION('',(-1.22464679914735E-16,7.40148683083438E-17,-1.00000000000000));
#38=VECTOR('',#37,1.00000000000000);
#39=LINE('',#36,#38);
#40=EDGE_CURVE('',#27,#35,#39,.T.);
#41=ORIENTED_EDGE('',*,*,#40,.T.);
#42=CARTESIAN_POINT('',(0.00732595834106609,0.750000000000000,-2.10000000000000));
#43=VERTEX_POINT('',#42);
#44=CARTESIAN_POINT('',(0.00732595834106609,0.750000000000000,-2.10000000000000));
#45=DIRECTION('',(9.06420715631261E-33,1.00000000000000,7.40148683083438E-17));
#46=VECTOR('',#45,1.00000000000000);
#47=LINE('',#44,#46);
#48=EDGE_CURVE('',#43,#35,#47,.T.);
#49=ORIENTED_EDGE('',*,*,#48,.F.);
#50=CARTESIAN_POINT('',(0.00732595834106609,0.750000000000000,-0.600000000000000));
#51=DIRECTION('',(-1.22464679914735E-16,7.40148683083438E-17,-1.00000000000000));
#52=VECTOR('',#51,1.00000000000000);
#53=LINE('',#50,#52);
#54=EDGE_CURVE('',#25,#43,#53,.T.);
#55=ORIENTED_EDGE('',*,*,#54,.F.);
#56=EDGE_LOOP('',(#33,#41,#49,#55));
#57=FACE_OUTER_BOUND('',#56,.T.);
#58=CARTESIAN_POINT('',(0.00732595834106609,0.750000000000000,-1.35000000000000));
#59=DIRECTION('',(-1.00000000000000,0.00000000000000,1.22464679914735E-16));
#60=DIRECTION('',(1.22464679914735E-16,-7.40148683083438E-17,1.00000000000000));
#61=AXIS2_PLACEMENT_3D('',#58,#59,#60);
#62=PLANE('',#61);
#63=ADVANCED_FACE('',(#57),#62,.T.);
#64=ORIENTED_EDGE('',*,*,#48,.T.);
#65=CARTESIAN_POINT('',(0.0823259583410660,6.75000000000000,-2.10000000000000));
#66=VERTEX_POINT('',#65);
#67=CARTESIAN_POINT('',(0.00732595834106609,6.75000000000000,-2.10000000000000));
#68=DIRECTION('',(1.00000000000000,0.00000000000000,-1.22464679914735E-16));
#69=VECTOR('',#68,1.00000000000000);
#70=LINE('',#67,#69);
#71=EDGE_CURVE('',#35,#66,#70,.T.);
#72=ORIENTED_EDGE('',*,*,#71,.T.);
#73=CARTESIAN_POINT('',(0.0823259583410660,0.750000000000000,-2.10000000000000));
#74=VERTEX_POINT('',#73);
#75=CARTESIAN_POINT('',(0.0823259583410660,0.750000000000000,-2.10000000000000));
#76=DIRECTION('',(9.06420715631261E-33,1.00000000000000,7.40148683083438E-17));
#77=VECTOR('',#76,1.00000000000000);
#78=LINE('',#75,#77);
#79=EDGE_CURVE('',#74,#66,#78,.T.);
#80=ORIENTED_EDGE('',*,*,#79,.F.);
#81=CARTESIAN_POINT('',(0.00732595834106609,0.750000000000000,-2.10000000000000));
#82=DIRECTION('',(1.00000000000000,0.00000000000000,-1.22464679914735E-16));
#83=VECTOR('',#82,1.00000000000000);
#84=LINE('',#81,#83);
#85=EDGE_CURVE('',#43,#74,#84,.T.);
#86=ORIENTED_EDGE('',*,*,#85,.F.);
#87=EDGE_LOOP('',(#64,#72,#80,#86));
#88=FACE_OUTER_BOUND('',#87,.T.);
#89=CARTESIAN_POINT('',(0.0448259583410662,0.750000000000000,-2.10000000000000));
#90=DIRECTION('',(-1.22464679914735E-16,7.40148683083438E-17,-1.00000000000000));
#91=DIRECTION('',(-1.00000000000000,0.00000000000000,1.22464679914735E-16));
#92=AXIS2_PLACEMENT_3D('',#89,#90,#91);
#93=PLANE('',#92);
#94=ADVANCED_FACE('',(#88),#93,.T.);
#95=ORIENTED_EDGE('',*,*,#79,.T.);
#96=CARTESIAN_POINT('',(0.0823259583410660,6.75000000000000,-0.675000000000000));
#97=VERTEX_POINT('',#96);
#98=CARTESIAN_POINT('',(0.0823259583410660,6.75000000000000,-0.675000000000000));
#99=DIRECTION('',(1.22464679914735E-16,-7.79103876929934E-17,1.00000000000000));
#100=VECTOR('',#99,1.00000000000000);
#101=LINE('',#98,#100);
#102=EDGE_CURVE('',#66,#97,#101,.T.);
#103=ORIENTED_EDGE('',*,*,#102,.T.);
#104=CARTESIAN_POINT('',(0.0823259583410660,0.750000000000000,-0.675000000000000));
#105=VERTEX_POINT('',#104);
#106=CARTESIAN_POINT('',(0.0823259583410660,0.750000000000000,-0.675000000000000));
#107=DIRECTION('',(9.06420715631261E-33,1.00000000000000,7.40148683083438E-17));
#108=VECTOR('',#107,1.00000000000000);
#109=LINE('',#106,#108);
#110=EDGE_CURVE('',#105,#97,#109,.T.);
#111=ORIENTED_EDGE('',*,*,#110,.F.);
#112=CARTESIAN_POINT('',(0.0823259583410660,0.750000000000000,-0.675000000000000));
#113=DIRECTION('',(-1.22464679914735E-16,7.79103876929934E-17,-1.00000000000000));
#114=VECTOR('',#113,1.00000000000000);
#115=LINE('',#112,#114);
#116=EDGE_CURVE('',#105,#74,#115,.T.);
#117=ORIENTED_EDGE('',*,*,#116,.T.);
#118=EDGE_LOOP('',(#95,#103,#111,#117));
#119=FACE_OUTER_BOUND('',#118,.T.);
#120=CARTESIAN_POINT('',(0.0823259583410660,0.750000000000000,-1.38750000000000));
#121=DIRECTION('',(1.00000000000000,0.00000000000000,-1.22464679914735E-16));
#122=DIRECTION('',(-1.22464679914735E-16,7.79103876929934E-17,-1.00000000000000));
#123=AXIS2_PLACEMENT_3D('',#120,#121,#122);
#124=PLANE('',#123);
#125=ADVANCED_FACE('',(#119),#124,.T.);
#126=ORIENTED_EDGE('',*,*,#110,.T.);
#127=CARTESIAN_POINT('',(1.58232595834107,6.75000000000000,-0.675000000000000));
#128=VERTEX_POINT('',#127);
#129=CARTESIAN_POINT('',(1.58232595834107,6.75000000000000,-0.675000000000000));
#130=DIRECTION('',(1.00000000000000,-0.00000000000000,-1.22464679914735E-16));
#131=VECTOR('',#130,1.00000000000000);
#132=LINE('',#129,#131);
#133=EDGE_CURVE('',#97,#128,#132,.T.);
#134=ORIENTED_EDGE('',*,*,#133,.T.);
#135=CARTESIAN_POINT('',(1.58232595834107,0.750000000000000,-0.675000000000000));
#136=VERTEX_POINT('',#135);
#137=CARTESIAN_POINT('',(1.58232595834107,0.750000000000000,-0.675000000000000));
#138=DIRECTION('',(9.06420715631261E-33,1.00000000000000,7.40148683083438E-17));
#139=VECTOR('',#138,1.00000000000000);
#140=LINE('',#137,#139);
#141=EDGE_CURVE('',#136,#128,#140,.T.);
#142=ORIENTED_EDGE('',*,*,#141,.F.);
#143=CARTESIAN_POINT('',(1.58232595834107,0.750000000000000,-0.675000000000000));
#144=DIRECTION('',(-1.00000000000000,0.00000000000000,1.22464679914735E-16));
#145=VECTOR('',#144,1.00000000000000);
#146=LINE('',#143,#145);
#147=EDGE_CURVE('',#136,#105,#146,.T.);
#148=ORIENTED_EDGE('',*,*,#147,.T.);
#149=EDGE_LOOP('',(#126,#134,#142,#148));
#150=FACE_OUTER_BOUND('',#149,.T.);
#151=CARTESIAN_POINT('',(0.832325958341070,0.750000000000000,-0.675000000000000));
#152=DIRECTION('',(-1.22464679914735E-16,7.40148683083438E-17,-1.00000000000000));
#153=DIRECTION('',(-1.00000000000000,0.00000000000000,1.22464679914735E-16));
#154=AXIS2_PLACEMENT_3D('',#151,#152,#153);
#155=PLANE('',#154);
#156=ADVANCED_FACE('',(#150),#155,.T.);
#157=ORIENTED_EDGE('',*,*,#141,.T.);
#158=CARTESIAN_POINT('',(1.51932595834107,6.75000000000000,-1.35000000000000));
#159=VERTEX_POINT('',#158);
#160=CARTESIAN_POINT('',(1.51932595834107,6.75000000000000,-1.35000000000000));
#161=DIRECTION('',(-0.0929294516015967,1.63765741006162E-16,-0.995672695731397));
#162=VECTOR('',#161,1.00000000000000);
#163=LINE('',#160,#162);
#164=EDGE_CURVE('',#128,#159,#163,.T.);
#165=ORIENTED_EDGE('',*,*,#164,.T.);
#166=CARTESIAN_POINT('',(1.51932595834107,0.750000000000000,-1.35000000000000));
#167=VERTEX_POINT('',#166);
#168=CARTESIAN_POINT('',(1.51932595834107,0.750000000000000,-1.35000000000000));
#169=DIRECTION('',(9.06420715631261E-33,1.00000000000000,7.40148683083438E-17));
#170=VECTOR('',#169,1.00000000000000);
#171=LINE('',#168,#170);
#172=EDGE_CURVE('',#167,#159,#171,.T.);
#173=ORIENTED_EDGE('',*,*,#172,.F.);
#174=CARTESIAN_POINT('',(1.51932595834107,0.750000000000000,-1.35000000000000));
#175=DIRECTION('',(0.0929294516015967,-1.63765741006162E-16,0.995672695731397));
#176=VECTOR('',#175,1.00000000000000);
#177=LINE('',#174,#176);
#178=EDGE_CURVE('',#167,#136,#177,.T.);
#179=ORIENTED_EDGE('',*,*,#178,.T.);
#180=EDGE_LOOP('',(#157,#165,#173,#179));
#181=FACE_OUTER_BOUND('',#180,.T.);
#182=CARTESIAN_POINT('',(1.55082595834107,0.750000000000000,-1.01250000000000));
#183=DIRECTION('',(-0.995672695731397,-6.87816112225878E-18,0.0929294516015967));
#184=DIRECTION('',(0.0929294516015967,-1.63765741006162E-16,0.995672695731397));
#185=AXIS2_PLACEMENT_3D('',#182,#183,#184);
#186=PLANE('',#185);
#187=ADVANCED_FACE('',(#181),#186,.T.);
#188=ORIENTED_EDGE('',*,*,#172,.T.);
#189=CARTESIAN_POINT('',(1.59465191668214,6.75000000000000,-1.35000000000000));
#190=VERTEX_POINT('',#189);
#191=CARTESIAN_POINT('',(1.59465191668214,6.75000000000000,-1.35000000000000));
#192=DIRECTION('',(1.00000000000000,-0.00000000000000,-1.22464679914735E-16));
#193=VECTOR('',#192,1.00000000000000);
#194=LINE('',#191,#193);
#195=EDGE_CURVE('',#159,#190,#194,.T.);
#196=ORIENTED_EDGE('',*,*,#195,.T.);
#197=CARTESIAN_POINT('',(1.59465191668214,0.750000000000000,-1.35000000000000));
#198=VERTEX_POINT('',#197);
#199=CARTESIAN_POINT('',(1.59465191668214,0.750000000000000,-1.35000000000000));
#200=DIRECTION('',(9.06420715631261E-33,1.00000000000000,7.40148683083438E-17));
#201=VECTOR('',#200,1.00000000000000);
#202=LINE('',#199,#201);
#203=EDGE_CURVE('',#198,#190,#202,.T.);
#204=ORIENTED_EDGE('',*,*,#203,.F.);
#205=CARTESIAN_POINT('',(1.59465191668214,0.750000000000000,-1.35000000000000));
#206=DIRECTION('',(-1.00000000000000,0.00000000000000,1.22464679914735E-16));
#207=VECTOR('',#206,1.00000000000000);
#208=LINE('',#205,#207);
#209=EDGE_CURVE('',#198,#167,#208,.T.);
#210=ORIENTED_EDGE('',*,*,#209,.T.);
#211=EDGE_LOOP('',(#188,#196,#204,#210));
#212=FACE_OUTER_BOUND('',#211,.T.);
#213=CARTESIAN_POINT('',(1.55698893751160,0.750000000000000,-1.35000000000000));
#214=DIRECTION('',(-1.22464679914735E-16,7.40148683083438E-17,-1.00000000000000));
#215=DIRECTION('',(-1.00000000000000,0.00000000000000,1.22464679914735E-16));
#216=AXIS2_PLACEMENT_3D('',#213,#214,#215);
#217=PLANE('',#216);
#218=ADVANCED_FACE('',(#212),#217,.T.);
#219=ORIENTED_EDGE('',*,*,#203,.T.);
#220=CARTESIAN_POINT('',(1.66465191668214,6.75000000000000,-0.600000000000000));
#221=VERTEX_POINT('',#220);
#222=CARTESIAN_POINT('',(1.59465191668214,6.75000000000000,-1.35000000000000));
#223=DIRECTION('',(0.0929294516015969,-1.47389166905546E-16,0.995672695731397));
#224=VECTOR('',#223,1.00000000000000);
#225=LINE('',#222,#224);
#226=EDGE_CURVE('',#190,#221,#225,.T.);
#227=ORIENTED_EDGE('',*,*,#226,.T.);
#228=CARTESIAN_POINT('',(1.66465191668214,0.750000000000000,-0.600000000000000));
#229=VERTEX_POINT('',#228);
#230=CARTESIAN_POINT('',(1.66465191668214,0.750000000000000,-0.600000000000000));
#231=DIRECTION('',(9.06420715631261E-33,1.00000000000000,7.40148683083438E-17));
#232=VECTOR('',#231,1.00000000000000);
#233=LINE('',#230,#232);
#234=EDGE_CURVE('',#229,#221,#233,.T.);
#235=ORIENTED_EDGE('',*,*,#234,.F.);
#236=CARTESIAN_POINT('',(1.59465191668214,0.750000000000000,-1.35000000000000));
#237=DIRECTION('',(0.0929294516015969,-1.47389166905546E-16,0.995672695731397));
#238=VECTOR('',#237,1.00000000000000);
#239=LINE('',#236,#238);
#240=EDGE_CURVE('',#198,#229,#239,.T.);
#241=ORIENTED_EDGE('',*,*,#240,.F.);
#242=EDGE_LOOP('',(#219,#227,#235,#241));
#243=FACE_OUTER_BOUND('',#242,.T.);
#244=CARTESIAN_POINT('',(1.62965191668214,0.750000000000000,-0.975000000000000));
#245=DIRECTION('',(0.995672695731397,6.87816112225879E-18,-0.0929294516015969));
#246=DIRECTION('',(-0.0929294516015969,1.47389166905546E-16,-0.995672695731397));
#247=AXIS2_PLACEMENT_3D('',#244,#245,#246);
#248=PLANE('',#247);
#249=ADVANCED_FACE('',(#243),#248,.T.);
#250=ORIENTED_EDGE('',*,*,#234,.T.);
#251=CARTESIAN_POINT('',(1.66465191668214,6.75000000000000,-0.600000000000000));
#252=DIRECTION('',(-1.00000000000000,0.00000000000000,1.22464679914735E-16));
#253=VECTOR('',#252,1.00000000000000);
#254=LINE('',#251,#253);
#255=EDGE_CURVE('',#221,#27,#254,.T.);
#256=ORIENTED_EDGE('',*,*,#255,.T.);
#257=ORIENTED_EDGE('',*,*,#32,.F.);
#258=CARTESIAN_POINT('',(1.66465191668214,0.750000000000000,-0.600000000000000));
#259=DIRECTION('',(-1.00000000000000,0.00000000000000,1.22464679914735E-16));
#260=VECTOR('',#259,1.00000000000000);
#261=LINE('',#258,#260);
#262=EDGE_CURVE('',#229,#25,#261,.T.);
#263=ORIENTED_EDGE('',*,*,#262,.F.);
#264=EDGE_LOOP('',(#250,#256,#257,#263));
#265=FACE_OUTER_BOUND('',#264,.T.);
#266=CARTESIAN_POINT('',(0.835988937511603,0.750000000000000,-0.600000000000000));
#267=DIRECTION('',(1.22464679914735E-16,-7.40148683083438E-17,1.00000000000000));
#268=DIRECTION('',(1.00000000000000,-0.00000000000000,-1.22464679914735E-16));
#269=AXIS2_PLACEMENT_3D('',#266,#267,#268);
#270=PLANE('',#269);
#271=ADVANCED_FACE('',(#265),#270,.T.);
#272=ORIENTED_EDGE('',*,*,#71,.F.);
#273=ORIENTED_EDGE('',*,*,#40,.F.);
#274=ORIENTED_EDGE('',*,*,#255,.F.);
#275=ORIENTED_EDGE('',*,*,#226,.F.);
#276=ORIENTED_EDGE('',*,*,#195,.F.);
#277=ORIENTED_EDGE('',*,*,#164,.F.);
#278=ORIENTED_EDGE('',*,*,#133,.F.);
#279=ORIENTED_EDGE('',*,*,#102,.F.);
#280=EDGE_LOOP('',(#272,#273,#274,#275,#276,#277,#278,#279));
#281=FACE_OUTER_BOUND('',#280,.T.);
#282=CARTESIAN_POINT('',(1.14702758674326,6.75000000000000,-0.600000000000000));
#283=DIRECTION('',(9.06420715631261E-33,1.00000000000000,7.40148683083438E-17));
#284=DIRECTION('',(1.00000000000000,0.00000000000000,-1.22464679914735E-16));
#285=AXIS2_PLACEMENT_3D('',#282,#283,#284);
#286=PLANE('',#285);
#287=ADVANCED_FACE('',(#281),#286,.T.);
#288=ORIENTED_EDGE('',*,*,#240,.T.);
#289=ORIENTED_EDGE('',*,*,#262,.T.);
#290=ORIENTED_EDGE('',*,*,#54,.T.);
#291=ORIENTED_EDGE('',*,*,#85,.T.);
#292=ORIENTED_EDGE('',*,*,#116,.F.);
#293=ORIENTED_EDGE('',*,*,#147,.F.);
#294=ORIENTED_EDGE('',*,*,#178,.F.);
#295=ORIENTED_EDGE('',*,*,#209,.F.);
#296=EDGE_LOOP('',(#288,#289,#290,#291,#292,#293,#294,#295));
#297=FACE_OUTER_BOUND('',#296,.T.);
#298=CARTESIAN_POINT('',(1.14702758674326,0.750000000000000,-0.600000000000000));
#299=DIRECTION('',(9.06420715631261E-33,1.00000000000000,7.40148683083438E-17));
#300=DIRECTION('',(1.00000000000000,0.00000000000000,-1.22464679914735E-16));
#301=AXIS2_PLACEMENT_3D('',#298,#299,#300);
#302=PLANE('',#301);
#303=ADVANCED_FACE('',(#297),#302,.F.);
#304=CLOSED_SHELL('',(#63,#94,#125,#156,#187,#218,#249,#271,#287,#303));
#305=MANIFOLD_SOLID_BREP('',#304);
#306=COLOUR_RGB('',1.00000000000000,0.00000000000000,0.00000000000000);
#307=FILL_AREA_STYLE_COLOUR('',#306);
#308=FILL_AREA_STYLE('',(#307));
#309=SURFACE_STYLE_FILL_AREA(#308);
#310=SURFACE_SIDE_STYLE('',(#309));
#311=SURFACE_STYLE_USAGE(.BOTH.,#310);
#312=PRESENTATION_STYLE_ASSIGNMENT((#311));
#313=STYLED_ITEM('',(#312),#305);
#314=ADVANCED_BREP_SHAPE_REPRESENTATION('',(#305,#23),#18);
#315=PRODUCT('', '', ' ',(#2));
#316=PRODUCT_DEFINITION_FORMATION_WITH_SPECIFIED_SOURCE (' ', ' ', #315, .NOT_KNOWN.) ;
#317=PRODUCT_CATEGORY('part','') ;
#318=PRODUCT_RELATED_PRODUCT_CATEGORY('detail', ' ', (#315)) ;
#319=PRODUCT_CATEGORY_RELATIONSHIP(' ', ' ', #317, #318);
#320=PRODUCT_DEFINITION('', '', #316, #1);
#321=PRODUCT_DEFINITION_SHAPE('NONE', 'NONE', #320);
#322=SHAPE_DEFINITION_REPRESENTATION(#321, #314);
#323=PRESENTATION_LAYER_ASSIGNMENT('1','Unnamed [1]',(#305));
#324=MECHANICAL_DESIGN_GEOMETRIC_PRESENTATION_REPRESENTATION('',(#313), #18);
ENDSEC;
END-ISO-10303-21;
