ISO-10303-21;
HEADER;
FILE_DESCRIPTION(('', 'CAx-IF Rec.Pracs.---Representation and Presentation of Product Manufacturing Information (PMI)---4.0---2014-10-13'),'2;1');
FILE_NAME('C:/Program Files/Kubotek/KeyCreatorPro.2021.SP2/STEP/SG2169.STP', '2021-08-04T20:00:13',(''), (''), 'Kubotek Kosmos Version 3.0.10279.10279', 'KeyCreator Pro', '');
FILE_SCHEMA(('AP242_MANAGED_MODEL_BASED_3D_ENGINEERING_MIM_LF  { 1 0 10303 442 1 1 4 }'));
ENDSEC;
DATA;
#1=PRODUCT_DEFINITION_CONTEXT('',#4,'design');
#2=PRODUCT_CONTEXT('',#4,'mechanical');
#3=APPLICATION_PROTOCOL_DEFINITION('international standard','ap242_managed_model_based_3d_engineering',2011,#4);
#4=APPLICATION_CONTEXT('managed model based 3d engineering');
#10=DIMENSIONAL_EXPONENTS(1.0,0.0,0.0,0.0,0.0,0.0,0.0);
#11=DIMENSIONAL_EXPONENTS(0.0,0.0,0.0,0.0,0.0,0.0,0.0);
#12=(LENGTH_UNIT()NAMED_UNIT(*)SI_UNIT(.MILLI.,.METRE.));
#13=(NAMED_UNIT(*)PLANE_ANGLE_UNIT()SI_UNIT($,.RADIAN.));
#14=(NAMED_UNIT(*)SI_UNIT($,.STERADIAN.)SOLID_ANGLE_UNIT());
#15=LENGTH_MEASURE_WITH_UNIT(LENGTH_MEASURE(25.4),#12);
#16= (CONVERSION_BASED_UNIT('INCH',#15)LENGTH_UNIT()NAMED_UNIT(#10));
#17=UNCERTAINTY_MEASURE_WITH_UNIT(LENGTH_MEASURE(1.0E-006),#16,'','');
#18=(GEOMETRIC_REPRESENTATION_CONTEXT(3)GLOBAL_UNCERTAINTY_ASSIGNED_CONTEXT((#17))GLOBAL_UNIT_ASSIGNED_CONTEXT((#16,#13,#14))REPRESENTATION_CONTEXT('NONE','WORKSPACE'));
#20=CARTESIAN_POINT('',(0.00000000000000,0.00000000000000,0.00000000000000));
#21=DIRECTION('',(0.00000000000000,0.00000000000000,1.00000000000000));
#22=DIRECTION('',(1.00000000000000,0.00000000000000,0.00000000000000));
#23=AXIS2_PLACEMENT_3D('',#20,#21,#22);
#24=CARTESIAN_POINT('',(0.225000000000000,2.84500000000000,-0.195000000000000));
#25=VERTEX_POINT('',#24);
#26=CARTESIAN_POINT('',(0.225000000000000,2.84500000000000,0.195000000000000));
#27=VERTEX_POINT('',#26);
#28=CARTESIAN_POINT('',(0.225000000000000,2.84500000000000,-0.195000000000000));
#29=DIRECTION('',(0.00000000000000,7.11681426041767E-17,1.00000000000000));
#30=VECTOR('',#29,1.00000000000000);
#31=LINE('',#28,#30);
#32=EDGE_CURVE('',#25,#27,#31,.T.);
#33=ORIENTED_EDGE('',*,*,#32,.T.);
#34=CARTESIAN_POINT('',(0.225000000000000,-3.15500000000000,0.195000000000000));
#35=VERTEX_POINT('',#34);
#36=CARTESIAN_POINT('',(0.225000000000000,-0.155000000000000,0.195000000000000));
#37=DIRECTION('',(0.00000000000000,1.00000000000000,-1.01770443923973E-16));
#38=VECTOR('',#37,1.00000000000000);
#39=LINE('',#36,#38);
#40=EDGE_CURVE('',#35,#27,#39,.T.);
#41=ORIENTED_EDGE('',*,*,#40,.F.);
#42=CARTESIAN_POINT('',(0.225000000000000,-3.15500000000000,-0.195000000000000));
#43=VERTEX_POINT('',#42);
#44=CARTESIAN_POINT('',(0.225000000000000,-3.15500000000000,-0.195000000000000));
#45=DIRECTION('',(-0.00000000000000,-7.11681426041767E-17,-1.00000000000000));
#46=VECTOR('',#45,1.00000000000000);
#47=LINE('',#44,#46);
#48=EDGE_CURVE('',#35,#43,#47,.T.);
#49=ORIENTED_EDGE('',*,*,#48,.T.);
#50=CARTESIAN_POINT('',(0.225000000000000,-0.155000000000000,-0.195000000000000));
#51=DIRECTION('',(0.00000000000000,1.00000000000000,-1.01770443923973E-16));
#52=VECTOR('',#51,1.00000000000000);
#53=LINE('',#50,#52);
#54=EDGE_CURVE('',#43,#25,#53,.T.);
#55=ORIENTED_EDGE('',*,*,#54,.T.);
#56=EDGE_LOOP('',(#33,#41,#49,#55));
#57=FACE_OUTER_BOUND('',#56,.T.);
#58=CARTESIAN_POINT('',(0.225000000000000,-0.155000000000000,0.00000000000000));
#59=DIRECTION('',(1.00000000000000,-0.00000000000000,0.00000000000000));
#60=DIRECTION('',(-0.00000000000000,-7.11681426041767E-17,-1.00000000000000));
#61=AXIS2_PLACEMENT_3D('',#58,#59,#60);
#62=PLANE('',#61);
#63=ADVANCED_FACE('',(#57),#62,.T.);
#64=CARTESIAN_POINT('',(0.165000000000000,2.84500000000000,0.255000000000000));
#65=VERTEX_POINT('',#64);
#66=CARTESIAN_POINT('',(0.165000000000000,2.84500000000000,0.195000000000000));
#67=DIRECTION('',(-0.00000000000000,-1.00000000000000,-0.00000000000000));
#68=DIRECTION('',(-1.00000000000000,0.00000000000000,0.00000000000000));
#69=AXIS2_PLACEMENT_3D('',#66,#67,#68);
#70=CIRCLE('',#69,0.0600000000000000);
#71=EDGE_CURVE('',#27,#65,#70,.T.);
#72=ORIENTED_EDGE('',*,*,#71,.T.);
#73=CARTESIAN_POINT('',(0.165000000000000,-3.15500000000000,0.255000000000000));
#74=VERTEX_POINT('',#73);
#75=CARTESIAN_POINT('',(0.165000000000000,-0.155000000000000,0.255000000000000));
#76=DIRECTION('',(0.00000000000000,-1.00000000000000,1.01770443923973E-16));
#77=VECTOR('',#76,1.00000000000000);
#78=LINE('',#75,#77);
#79=EDGE_CURVE('',#65,#74,#78,.T.);
#80=ORIENTED_EDGE('',*,*,#79,.T.);
#81=CARTESIAN_POINT('',(0.165000000000000,-3.15500000000000,0.195000000000000));
#82=DIRECTION('',(0.00000000000000,1.00000000000000,0.00000000000000));
#83=DIRECTION('',(-1.00000000000000,0.00000000000000,0.00000000000000));
#84=AXIS2_PLACEMENT_3D('',#81,#82,#83);
#85=CIRCLE('',#84,0.0600000000000000);
#86=EDGE_CURVE('',#74,#35,#85,.T.);
#87=ORIENTED_EDGE('',*,*,#86,.T.);
#88=ORIENTED_EDGE('',*,*,#40,.T.);
#89=EDGE_LOOP('',(#72,#80,#87,#88));
#90=FACE_OUTER_BOUND('',#89,.T.);
#91=CARTESIAN_POINT('',(0.165000000000000,-0.155000000000000,0.195000000000000));
#92=DIRECTION('',(0.00000000000000,1.00000000000000,-1.01770443923973E-16));
#93=DIRECTION('',(-1.00000000000000,0.00000000000000,0.00000000000000));
#94=AXIS2_PLACEMENT_3D('',#91,#92,#93);
#95=CYLINDRICAL_SURFACE('',#94,0.0600000000000000);
#96=ADVANCED_FACE('',(#90),#95,.T.);
#97=CARTESIAN_POINT('',(-0.165000000000000,2.84500000000000,0.255000000000000));
#98=VERTEX_POINT('',#97);
#99=CARTESIAN_POINT('',(0.165000000000000,2.84500000000000,0.255000000000000));
#100=DIRECTION('',(-1.00000000000000,0.00000000000000,0.00000000000000));
#101=VECTOR('',#100,1.00000000000000);
#102=LINE('',#99,#101);
#103=EDGE_CURVE('',#65,#98,#102,.T.);
#104=ORIENTED_EDGE('',*,*,#103,.T.);
#105=CARTESIAN_POINT('',(-0.165000000000000,-3.15500000000000,0.255000000000000));
#106=VERTEX_POINT('',#105);
#107=CARTESIAN_POINT('',(-0.165000000000000,-0.155000000000000,0.255000000000000));
#108=DIRECTION('',(0.00000000000000,1.00000000000000,-1.01770443923973E-16));
#109=VECTOR('',#108,1.00000000000000);
#110=LINE('',#107,#109);
#111=EDGE_CURVE('',#106,#98,#110,.T.);
#112=ORIENTED_EDGE('',*,*,#111,.F.);
#113=CARTESIAN_POINT('',(0.165000000000000,-3.15500000000000,0.255000000000000));
#114=DIRECTION('',(1.00000000000000,0.00000000000000,0.00000000000000));
#115=VECTOR('',#114,1.00000000000000);
#116=LINE('',#113,#115);
#117=EDGE_CURVE('',#106,#74,#116,.T.);
#118=ORIENTED_EDGE('',*,*,#117,.T.);
#119=ORIENTED_EDGE('',*,*,#79,.F.);
#120=EDGE_LOOP('',(#104,#112,#118,#119));
#121=FACE_OUTER_BOUND('',#120,.T.);
#122=CARTESIAN_POINT('',(3.60822483003176E-16,-0.155000000000000,0.255000000000000));
#123=DIRECTION('',(0.00000000000000,1.01770443923973E-16,1.00000000000000));
#124=DIRECTION('',(1.00000000000000,-0.00000000000000,-0.00000000000000));
#125=AXIS2_PLACEMENT_3D('',#122,#123,#124);
#126=PLANE('',#125);
#127=ADVANCED_FACE('',(#121),#126,.T.);
#128=CARTESIAN_POINT('',(-0.225000000000000,2.84500000000000,0.195000000000000));
#129=VERTEX_POINT('',#128);
#130=CARTESIAN_POINT('',(-0.165000000000000,2.84500000000000,0.195000000000000));
#131=DIRECTION('',(0.00000000000000,-1.00000000000000,6.12323399573677E-17));
#132=DIRECTION('',(-1.00000000000000,0.00000000000000,0.00000000000000));
#133=AXIS2_PLACEMENT_3D('',#130,#131,#132);
#134=CIRCLE('',#133,0.0600000000000000);
#135=EDGE_CURVE('',#98,#129,#134,.T.);
#136=ORIENTED_EDGE('',*,*,#135,.T.);
#137=CARTESIAN_POINT('',(-0.225000000000000,-3.15500000000000,0.195000000000000));
#138=VERTEX_POINT('',#137);
#139=CARTESIAN_POINT('',(-0.225000000000000,-0.155000000000000,0.195000000000000));
#140=DIRECTION('',(0.00000000000000,-1.00000000000000,1.01770443923973E-16));
#141=VECTOR('',#140,1.00000000000000);
#142=LINE('',#139,#141);
#143=EDGE_CURVE('',#129,#138,#142,.T.);
#144=ORIENTED_EDGE('',*,*,#143,.T.);
#145=CARTESIAN_POINT('',(-0.165000000000000,-3.15500000000000,0.195000000000000));
#146=DIRECTION('',(0.00000000000000,1.00000000000000,-6.12323399573677E-17));
#147=DIRECTION('',(-1.00000000000000,0.00000000000000,0.00000000000000));
#148=AXIS2_PLACEMENT_3D('',#145,#146,#147);
#149=CIRCLE('',#148,0.0600000000000000);
#150=EDGE_CURVE('',#138,#106,#149,.T.);
#151=ORIENTED_EDGE('',*,*,#150,.T.);
#152=ORIENTED_EDGE('',*,*,#111,.T.);
#153=EDGE_LOOP('',(#136,#144,#151,#152));
#154=FACE_OUTER_BOUND('',#153,.T.);
#155=CARTESIAN_POINT('',(-0.165000000000000,-0.155000000000000,0.195000000000000));
#156=DIRECTION('',(0.00000000000000,1.00000000000000,-1.01770443923973E-16));
#157=DIRECTION('',(0.707106781186545,0.00000000000000,-0.707106781186550));
#158=AXIS2_PLACEMENT_3D('',#155,#156,#157);
#159=CYLINDRICAL_SURFACE('',#158,0.0600000000000000);
#160=ADVANCED_FACE('',(#154),#159,.T.);
#161=CARTESIAN_POINT('',(-0.225000000000000,2.84500000000000,-0.195000000000000));
#162=VERTEX_POINT('',#161);
#163=CARTESIAN_POINT('',(-0.225000000000000,2.84500000000000,0.195000000000000));
#164=DIRECTION('',(0.00000000000000,-7.11681426041767E-17,-1.00000000000000));
#165=VECTOR('',#164,1.00000000000000);
#166=LINE('',#163,#165);
#167=EDGE_CURVE('',#129,#162,#166,.T.);
#168=ORIENTED_EDGE('',*,*,#167,.T.);
#169=CARTESIAN_POINT('',(-0.225000000000000,-3.15500000000000,-0.195000000000000));
#170=VERTEX_POINT('',#169);
#171=CARTESIAN_POINT('',(-0.225000000000000,-0.155000000000000,-0.195000000000000));
#172=DIRECTION('',(0.00000000000000,1.00000000000000,-1.01770443923973E-16));
#173=VECTOR('',#172,1.00000000000000);
#174=LINE('',#171,#173);
#175=EDGE_CURVE('',#170,#162,#174,.T.);
#176=ORIENTED_EDGE('',*,*,#175,.F.);
#177=CARTESIAN_POINT('',(-0.225000000000000,-3.15500000000000,0.195000000000000));
#178=DIRECTION('',(0.00000000000000,7.11681426041767E-17,1.00000000000000));
#179=VECTOR('',#178,1.00000000000000);
#180=LINE('',#177,#179);
#181=EDGE_CURVE('',#170,#138,#180,.T.);
#182=ORIENTED_EDGE('',*,*,#181,.T.);
#183=ORIENTED_EDGE('',*,*,#143,.F.);
#184=EDGE_LOOP('',(#168,#176,#182,#183));
#185=FACE_OUTER_BOUND('',#184,.T.);
#186=CARTESIAN_POINT('',(-0.225000000000000,-0.155000000000000,0.00000000000000));
#187=DIRECTION('',(-1.00000000000000,0.00000000000000,-0.00000000000000));
#188=DIRECTION('',(-0.00000000000000,7.11681426041767E-17,1.00000000000000));
#189=AXIS2_PLACEMENT_3D('',#186,#187,#188);
#190=PLANE('',#189);
#191=ADVANCED_FACE('',(#185),#190,.T.);
#192=CARTESIAN_POINT('',(-0.125000000000000,2.84500000000000,-0.195000000000000));
#193=VERTEX_POINT('',#192);
#194=CARTESIAN_POINT('',(-0.225000000000000,2.84500000000000,-0.195000000000000));
#195=DIRECTION('',(1.00000000000000,0.00000000000000,0.00000000000000));
#196=VECTOR('',#195,1.00000000000000);
#197=LINE('',#194,#196);
#198=EDGE_CURVE('',#162,#193,#197,.T.);
#199=ORIENTED_EDGE('',*,*,#198,.T.);
#200=CARTESIAN_POINT('',(-0.125000000000000,-3.15500000000000,-0.195000000000000));
#201=VERTEX_POINT('',#200);
#202=CARTESIAN_POINT('',(-0.125000000000000,-0.155000000000000,-0.195000000000000));
#203=DIRECTION('',(0.00000000000000,-1.00000000000000,1.01770443923973E-16));
#204=VECTOR('',#203,1.00000000000000);
#205=LINE('',#202,#204);
#206=EDGE_CURVE('',#193,#201,#205,.T.);
#207=ORIENTED_EDGE('',*,*,#206,.T.);
#208=CARTESIAN_POINT('',(-0.225000000000000,-3.15500000000000,-0.195000000000000));
#209=DIRECTION('',(-1.00000000000000,-0.00000000000000,-0.00000000000000));
#210=VECTOR('',#209,1.00000000000000);
#211=LINE('',#208,#210);
#212=EDGE_CURVE('',#201,#170,#211,.T.);
#213=ORIENTED_EDGE('',*,*,#212,.T.);
#214=ORIENTED_EDGE('',*,*,#175,.T.);
#215=EDGE_LOOP('',(#199,#207,#213,#214));
#216=FACE_OUTER_BOUND('',#215,.T.);
#217=CARTESIAN_POINT('',(-0.175000000000000,-0.155000000000000,-0.195000000000000));
#218=DIRECTION('',(0.00000000000000,-1.01770443923973E-16,-1.00000000000000));
#219=DIRECTION('',(-1.00000000000000,-0.00000000000000,-0.00000000000000));
#220=AXIS2_PLACEMENT_3D('',#217,#218,#219);
#221=PLANE('',#220);
#222=ADVANCED_FACE('',(#216),#221,.T.);
#223=CARTESIAN_POINT('',(-0.125000000000000,2.84500000000000,0.155000000000000));
#224=VERTEX_POINT('',#223);
#225=CARTESIAN_POINT('',(-0.125000000000000,2.84500000000000,0.155000000000000));
#226=DIRECTION('',(0.00000000000000,7.93016446160826E-17,1.00000000000000));
#227=VECTOR('',#226,1.00000000000000);
#228=LINE('',#225,#227);
#229=EDGE_CURVE('',#193,#224,#228,.T.);
#230=ORIENTED_EDGE('',*,*,#229,.T.);
#231=CARTESIAN_POINT('',(-0.125000000000000,-3.15500000000000,0.155000000000000));
#232=VERTEX_POINT('',#231);
#233=CARTESIAN_POINT('',(-0.125000000000000,-0.155000000000000,0.155000000000000));
#234=DIRECTION('',(0.00000000000000,1.00000000000000,-1.01770443923973E-16));
#235=VECTOR('',#234,1.00000000000000);
#236=LINE('',#233,#235);
#237=EDGE_CURVE('',#232,#224,#236,.T.);
#238=ORIENTED_EDGE('',*,*,#237,.F.);
#239=CARTESIAN_POINT('',(-0.125000000000000,-3.15500000000000,0.155000000000000));
#240=DIRECTION('',(0.00000000000000,-7.93016446160826E-17,-1.00000000000000));
#241=VECTOR('',#240,1.00000000000000);
#242=LINE('',#239,#241);
#243=EDGE_CURVE('',#232,#201,#242,.T.);
#244=ORIENTED_EDGE('',*,*,#243,.T.);
#245=ORIENTED_EDGE('',*,*,#206,.F.);
#246=EDGE_LOOP('',(#230,#238,#244,#245));
#247=FACE_OUTER_BOUND('',#246,.T.);
#248=CARTESIAN_POINT('',(-0.125000000000000,-0.155000000000000,-0.0200000000000000));
#249=DIRECTION('',(1.00000000000000,0.00000000000000,0.00000000000000));
#250=DIRECTION('',(0.00000000000000,-7.93016446160826E-17,-1.00000000000000));
#251=AXIS2_PLACEMENT_3D('',#248,#249,#250);
#252=PLANE('',#251);
#253=ADVANCED_FACE('',(#247),#252,.T.);
#254=CARTESIAN_POINT('',(0.125000000000000,2.84500000000000,0.155000000000000));
#255=VERTEX_POINT('',#254);
#256=CARTESIAN_POINT('',(0.125000000000000,2.84500000000000,0.155000000000000));
#257=DIRECTION('',(1.00000000000000,0.00000000000000,0.00000000000000));
#258=VECTOR('',#257,1.00000000000000);
#259=LINE('',#256,#258);
#260=EDGE_CURVE('',#224,#255,#259,.T.);
#261=ORIENTED_EDGE('',*,*,#260,.T.);
#262=CARTESIAN_POINT('',(0.125000000000000,-3.15500000000000,0.155000000000000));
#263=VERTEX_POINT('',#262);
#264=CARTESIAN_POINT('',(0.125000000000000,-0.155000000000000,0.155000000000000));
#265=DIRECTION('',(0.00000000000000,-1.00000000000000,1.01770443923973E-16));
#266=VECTOR('',#265,1.00000000000000);
#267=LINE('',#264,#266);
#268=EDGE_CURVE('',#255,#263,#267,.T.);
#269=ORIENTED_EDGE('',*,*,#268,.T.);
#270=CARTESIAN_POINT('',(0.125000000000000,-3.15500000000000,0.155000000000000));
#271=DIRECTION('',(-1.00000000000000,0.00000000000000,0.00000000000000));
#272=VECTOR('',#271,1.00000000000000);
#273=LINE('',#270,#272);
#274=EDGE_CURVE('',#263,#232,#273,.T.);
#275=ORIENTED_EDGE('',*,*,#274,.T.);
#276=ORIENTED_EDGE('',*,*,#237,.T.);
#277=EDGE_LOOP('',(#261,#269,#275,#276));
#278=FACE_OUTER_BOUND('',#277,.T.);
#279=CARTESIAN_POINT('',(3.46944695195361E-16,-0.155000000000000,0.155000000000000));
#280=DIRECTION('',(-0.00000000000000,-1.01770443923973E-16,-1.00000000000000));
#281=DIRECTION('',(-1.00000000000000,0.00000000000000,0.00000000000000));
#282=AXIS2_PLACEMENT_3D('',#279,#280,#281);
#283=PLANE('',#282);
#284=ADVANCED_FACE('',(#278),#283,.T.);
#285=CARTESIAN_POINT('',(0.125000000000000,2.84500000000000,-0.195000000000000));
#286=VERTEX_POINT('',#285);
#287=CARTESIAN_POINT('',(0.125000000000000,2.84500000000000,-0.195000000000000));
#288=DIRECTION('',(-0.00000000000000,-7.93016446160826E-17,-1.00000000000000));
#289=VECTOR('',#288,1.00000000000000);
#290=LINE('',#287,#289);
#291=EDGE_CURVE('',#255,#286,#290,.T.);
#292=ORIENTED_EDGE('',*,*,#291,.T.);
#293=CARTESIAN_POINT('',(0.125000000000000,-3.15500000000000,-0.195000000000000));
#294=VERTEX_POINT('',#293);
#295=CARTESIAN_POINT('',(0.125000000000000,-0.155000000000000,-0.195000000000000));
#296=DIRECTION('',(0.00000000000000,-1.00000000000000,1.01770443923973E-16));
#297=VECTOR('',#296,1.00000000000000);
#298=LINE('',#295,#297);
#299=EDGE_CURVE('',#286,#294,#298,.T.);
#300=ORIENTED_EDGE('',*,*,#299,.T.);
#301=CARTESIAN_POINT('',(0.125000000000000,-3.15500000000000,-0.195000000000000));
#302=DIRECTION('',(0.00000000000000,7.93016446160826E-17,1.00000000000000));
#303=VECTOR('',#302,1.00000000000000);
#304=LINE('',#301,#303);
#305=EDGE_CURVE('',#294,#263,#304,.T.);
#306=ORIENTED_EDGE('',*,*,#305,.T.);
#307=ORIENTED_EDGE('',*,*,#268,.F.);
#308=EDGE_LOOP('',(#292,#300,#306,#307));
#309=FACE_OUTER_BOUND('',#308,.T.);
#310=CARTESIAN_POINT('',(0.125000000000000,-0.155000000000000,-0.0200000000000000));
#311=DIRECTION('',(-1.00000000000000,0.00000000000000,0.00000000000000));
#312=DIRECTION('',(0.00000000000000,7.93016446160826E-17,1.00000000000000));
#313=AXIS2_PLACEMENT_3D('',#310,#311,#312);
#314=PLANE('',#313);
#315=ADVANCED_FACE('',(#309),#314,.T.);
#316=CARTESIAN_POINT('',(0.125000000000000,2.84500000000000,-0.195000000000000));
#317=DIRECTION('',(1.00000000000000,0.00000000000000,0.00000000000000));
#318=VECTOR('',#317,1.00000000000000);
#319=LINE('',#316,#318);
#320=EDGE_CURVE('',#286,#25,#319,.T.);
#321=ORIENTED_EDGE('',*,*,#320,.T.);
#322=ORIENTED_EDGE('',*,*,#54,.F.);
#323=CARTESIAN_POINT('',(0.125000000000000,-3.15500000000000,-0.195000000000000));
#324=DIRECTION('',(-1.00000000000000,-0.00000000000000,-0.00000000000000));
#325=VECTOR('',#324,1.00000000000000);
#326=LINE('',#323,#325);
#327=EDGE_CURVE('',#43,#294,#326,.T.);
#328=ORIENTED_EDGE('',*,*,#327,.T.);
#329=ORIENTED_EDGE('',*,*,#299,.F.);
#330=EDGE_LOOP('',(#321,#322,#328,#329));
#331=FACE_OUTER_BOUND('',#330,.T.);
#332=CARTESIAN_POINT('',(0.175000000000000,-0.155000000000000,-0.195000000000000));
#333=DIRECTION('',(0.00000000000000,-1.01770443923973E-16,-1.00000000000000));
#334=DIRECTION('',(-1.00000000000000,-0.00000000000000,-0.00000000000000));
#335=AXIS2_PLACEMENT_3D('',#332,#333,#334);
#336=PLANE('',#335);
#337=ADVANCED_FACE('',(#331),#336,.T.);
#338=ORIENTED_EDGE('',*,*,#32,.F.);
#339=ORIENTED_EDGE('',*,*,#320,.F.);
#340=ORIENTED_EDGE('',*,*,#291,.F.);
#341=ORIENTED_EDGE('',*,*,#260,.F.);
#342=ORIENTED_EDGE('',*,*,#229,.F.);
#343=ORIENTED_EDGE('',*,*,#198,.F.);
#344=ORIENTED_EDGE('',*,*,#167,.F.);
#345=ORIENTED_EDGE('',*,*,#135,.F.);
#346=ORIENTED_EDGE('',*,*,#103,.F.);
#347=ORIENTED_EDGE('',*,*,#71,.F.);
#348=EDGE_LOOP('',(#338,#339,#340,#341,#342,#343,#344,#345,#346,#347));
#349=FACE_OUTER_BOUND('',#348,.T.);
#350=CARTESIAN_POINT('',(0.156232500000000,2.84500000000000,-0.195000000000000));
#351=DIRECTION('',(0.00000000000000,1.00000000000000,-1.03490955181120E-16));
#352=DIRECTION('',(-1.00000000000000,0.00000000000000,0.00000000000000));
#353=AXIS2_PLACEMENT_3D('',#350,#351,#352);
#354=PLANE('',#353);
#355=ADVANCED_FACE('',(#349),#354,.T.);
#356=ORIENTED_EDGE('',*,*,#305,.F.);
#357=ORIENTED_EDGE('',*,*,#327,.F.);
#358=ORIENTED_EDGE('',*,*,#48,.F.);
#359=ORIENTED_EDGE('',*,*,#86,.F.);
#360=ORIENTED_EDGE('',*,*,#117,.F.);
#361=ORIENTED_EDGE('',*,*,#150,.F.);
#362=ORIENTED_EDGE('',*,*,#181,.F.);
#363=ORIENTED_EDGE('',*,*,#212,.F.);
#364=ORIENTED_EDGE('',*,*,#243,.F.);
#365=ORIENTED_EDGE('',*,*,#274,.F.);
#366=EDGE_LOOP('',(#356,#357,#358,#359,#360,#361,#362,#363,#364,#365));
#367=FACE_OUTER_BOUND('',#366,.T.);
#368=CARTESIAN_POINT('',(0.156232500000000,-3.15500000000000,-0.195000000000000));
#369=DIRECTION('',(0.00000000000000,1.00000000000000,-1.03490955181120E-16));
#370=DIRECTION('',(-1.00000000000000,0.00000000000000,0.00000000000000));
#371=AXIS2_PLACEMENT_3D('',#368,#369,#370);
#372=PLANE('',#371);
#373=ADVANCED_FACE('',(#367),#372,.F.);
#374=CLOSED_SHELL('',(#63,#96,#127,#160,#191,#222,#253,#284,#315,#337,#355,#373));
#375=MANIFOLD_SOLID_BREP('',#374);
#376=COLOUR_RGB('',1.00000000000000,0.00000000000000,0.00000000000000);
#377=FILL_AREA_STYLE_COLOUR('',#376);
#378=FILL_AREA_STYLE('',(#377));
#379=SURFACE_STYLE_FILL_AREA(#378);
#380=SURFACE_SIDE_STYLE('',(#379));
#381=SURFACE_STYLE_USAGE(.BOTH.,#380);
#382=PRESENTATION_STYLE_ASSIGNMENT((#381));
#383=STYLED_ITEM('',(#382),#375);
#384=ADVANCED_BREP_SHAPE_REPRESENTATION('',(#375,#23),#18);
#385=PRODUCT('','','',(#2));
#386=PRODUCT_DEFINITION_FORMATION_WITH_SPECIFIED_SOURCE('','',#385,.NOT_KNOWN.);
#387=PRODUCT_CATEGORY('part','');
#388=PRODUCT_RELATED_PRODUCT_CATEGORY('detail','',(#385));
#389=PRODUCT_CATEGORY_RELATIONSHIP('','',#387,#388);
#390=PRODUCT_DEFINITION('','',#386,#1);
#391=PRODUCT_DEFINITION_SHAPE('NONE','NONE',#390);
#392=SHAPE_DEFINITION_REPRESENTATION(#391,#384);
#393=PRESENTATION_LAYER_ASSIGNMENT('1','Unnamed [1]',(#375));
ENDSEC;
END-ISO-10303-21;
