ISO-10303-21;
HEADER;
FILE_DESCRIPTION((''),'2;1');
FILE_NAME('C:/Program Files/Kubotek/KeyCreatorPro.2021.SP0/STEP/SG2161.STP', '2021-03-10T21:23:44',(''), (''), 'KCM Version 2.0.6974.6974', 'KeyCreator Pro', '');
FILE_SCHEMA(('AUTOMOTIVE_DESIGN'));
ENDSEC;
DATA;
#1=PRODUCT_DEFINITION_CONTEXT('',#4,'design');
#2=PRODUCT_CONTEXT('',#4,'mechanical');
#3=APPLICATION_PROTOCOL_DEFINITION('International Standard','automotive_design',2001,#4);
#4=APPLICATION_CONTEXT('automotive design');
#10=DIMENSIONAL_EXPONENTS(1.0,0.0,0.0,0.0,0.0,0.0,0.0);
#11=DIMENSIONAL_EXPONENTS(0.0,0.0,0.0,0.0,0.0,0.0,0.0);
#12=(NAMED_UNIT(#10)LENGTH_UNIT()SI_UNIT(.MILLI.,.METRE.));
#13=(NAMED_UNIT(#11)PLANE_ANGLE_UNIT()SI_UNIT($,.RADIAN.));
#14=(NAMED_UNIT(#11)SOLID_ANGLE_UNIT()SI_UNIT($,.STERADIAN.));
#15=LENGTH_MEASURE_WITH_UNIT(LENGTH_MEASURE(25.4),#12);
#16= (CONVERSION_BASED_UNIT('INCH',#15)LENGTH_UNIT()NAMED_UNIT(#10));
#17=UNCERTAINTY_MEASURE_WITH_UNIT(LENGTH_MEASURE(1.0E-006),#16,'','');
#18=(GEOMETRIC_REPRESENTATION_CONTEXT(3)GLOBAL_UNCERTAINTY_ASSIGNED_CONTEXT((#17))GLOBAL_UNIT_ASSIGNED_CONTEXT((#16,#13,#14))REPRESENTATION_CONTEXT('NONE','WORKSPACE'));
#20=CARTESIAN_POINT('',(0.00000000000000,0.00000000000000,0.00000000000000));
#21=DIRECTION('',(0.00000000000000,0.00000000000000,1.00000000000000));
#22=DIRECTION('',(1.00000000000000,0.00000000000000,0.00000000000000));
#23=AXIS2_PLACEMENT_3D('',#20,#21,#22);
#24=CARTESIAN_POINT('',(0.0196850390000005,3.00242489397510,0.113716838308298));
#25=VERTEX_POINT('',#24);
#26=CARTESIAN_POINT('',(0.00000000000000,3.00242489397510,0.0940317993082977));
#27=VERTEX_POINT('',#26);
#28=CARTESIAN_POINT('',(0.0196850389999996,3.00242489397510,0.0940317993082977));
#29=DIRECTION('',(0.00000000000000,-1.00000000000000,6.12323399573677E-17));
#30=DIRECTION('',(1.00000000000000,0.00000000000000,0.00000000000000));
#31=AXIS2_PLACEMENT_3D('',#28,#29,#30);
#32=CIRCLE('',#31,0.0196850390000000);
#33=EDGE_CURVE('',#25,#27,#32,.T.);
#34=ORIENTED_EDGE('',*,*,#33,.T.);
#35=CARTESIAN_POINT('',(0.00000000000000,-2.99757510602490,0.0940317993082980));
#36=VERTEX_POINT('',#35);
#37=CARTESIAN_POINT('',(0.00000000000000,0.00242489397510205,0.0940317993082979));
#38=DIRECTION('',(0.00000000000000,-1.00000000000000,6.01370805005293E-17));
#39=VECTOR('',#38,1.00000000000000);
#40=LINE('',#37,#39);
#41=EDGE_CURVE('',#27,#36,#40,.T.);
#42=ORIENTED_EDGE('',*,*,#41,.T.);
#43=CARTESIAN_POINT('',(0.0196850390000005,-2.99757510602490,0.113716838308298));
#44=VERTEX_POINT('',#43);
#45=CARTESIAN_POINT('',(0.0196850389999996,-2.99757510602490,0.0940317993082980));
#46=DIRECTION('',(0.00000000000000,1.00000000000000,-6.12323399573677E-17));
#47=DIRECTION('',(1.00000000000000,0.00000000000000,0.00000000000000));
#48=AXIS2_PLACEMENT_3D('',#45,#46,#47);
#49=CIRCLE('',#48,0.0196850390000000);
#50=EDGE_CURVE('',#36,#44,#49,.T.);
#51=ORIENTED_EDGE('',*,*,#50,.T.);
#52=CARTESIAN_POINT('',(0.0196850390000005,0.00242489397510205,0.113716838308298));
#53=DIRECTION('',(0.00000000000000,1.00000000000000,-6.01370805005293E-17));
#54=VECTOR('',#53,1.00000000000000);
#55=LINE('',#52,#54);
#56=EDGE_CURVE('',#44,#25,#55,.T.);
#57=ORIENTED_EDGE('',*,*,#56,.T.);
#58=EDGE_LOOP('',(#34,#42,#51,#57));
#59=FACE_OUTER_BOUND('',#58,.T.);
#60=CARTESIAN_POINT('',(0.0196850389999996,0.00242489397510205,0.0940317993082979));
#61=DIRECTION('',(0.00000000000000,1.00000000000000,-6.01370805005293E-17));
#62=DIRECTION('',(1.00000000000000,0.00000000000000,0.00000000000000));
#63=AXIS2_PLACEMENT_3D('',#60,#61,#62);
#64=CYLINDRICAL_SURFACE('',#63,0.0196850390000000);
#65=ADVANCED_FACE('',(#59),#64,.T.);
#66=CARTESIAN_POINT('',(0.00000000000000,3.00242489397510,-0.0988815872585022));
#67=VERTEX_POINT('',#66);
#68=CARTESIAN_POINT('',(0.00000000000000,3.00242489397510,-0.0988815872585022));
#69=DIRECTION('',(-0.00000000000000,-6.06976201663893E-17,-1.00000000000000));
#70=VECTOR('',#69,1.00000000000000);
#71=LINE('',#68,#70);
#72=EDGE_CURVE('',#27,#67,#71,.T.);
#73=ORIENTED_EDGE('',*,*,#72,.T.);
#74=CARTESIAN_POINT('',(0.00000000000000,-2.99757510602490,-0.0988815872585018));
#75=VERTEX_POINT('',#74);
#76=CARTESIAN_POINT('',(0.00000000000000,0.00242489397510204,-0.0988815872585020));
#77=DIRECTION('',(0.00000000000000,-1.00000000000000,6.01370805005293E-17));
#78=VECTOR('',#77,1.00000000000000);
#79=LINE('',#76,#78);
#80=EDGE_CURVE('',#67,#75,#79,.T.);
#81=ORIENTED_EDGE('',*,*,#80,.T.);
#82=CARTESIAN_POINT('',(0.00000000000000,-2.99757510602490,-0.0988815872585018));
#83=DIRECTION('',(0.00000000000000,6.06976201663893E-17,1.00000000000000));
#84=VECTOR('',#83,1.00000000000000);
#85=LINE('',#82,#84);
#86=EDGE_CURVE('',#75,#36,#85,.T.);
#87=ORIENTED_EDGE('',*,*,#86,.T.);
#88=ORIENTED_EDGE('',*,*,#41,.F.);
#89=EDGE_LOOP('',(#73,#81,#87,#88));
#90=FACE_OUTER_BOUND('',#89,.T.);
#91=CARTESIAN_POINT('',(0.00000000000000,0.00242489397510204,-0.00242489397510208));
#92=DIRECTION('',(-1.00000000000000,0.00000000000000,0.00000000000000));
#93=DIRECTION('',(0.00000000000000,6.06976201663893E-17,1.00000000000000));
#94=AXIS2_PLACEMENT_3D('',#91,#92,#93);
#95=PLANE('',#94);
#96=ADVANCED_FACE('',(#90),#95,.T.);
#97=CARTESIAN_POINT('',(0.830708661165700,3.00242489397510,-0.0988815872585022));
#98=VERTEX_POINT('',#97);
#99=CARTESIAN_POINT('',(6.93889390390723E-18,3.00242489397510,-0.0988815872585022));
#100=DIRECTION('',(1.00000000000000,0.00000000000000,0.00000000000000));
#101=VECTOR('',#100,1.00000000000000);
#102=LINE('',#99,#101);
#103=EDGE_CURVE('',#67,#98,#102,.T.);
#104=ORIENTED_EDGE('',*,*,#103,.T.);
#105=CARTESIAN_POINT('',(0.830708661165700,-2.99757510602490,-0.0988815872585018));
#106=VERTEX_POINT('',#105);
#107=CARTESIAN_POINT('',(0.830708661165700,0.00242489397510204,-0.0988815872585020));
#108=DIRECTION('',(0.00000000000000,1.00000000000000,-6.01370805005293E-17));
#109=VECTOR('',#108,1.00000000000000);
#110=LINE('',#107,#109);
#111=EDGE_CURVE('',#106,#98,#110,.T.);
#112=ORIENTED_EDGE('',*,*,#111,.F.);
#113=CARTESIAN_POINT('',(6.93889390390723E-18,-2.99757510602490,-0.0988815872585018));
#114=DIRECTION('',(-1.00000000000000,-0.00000000000000,-0.00000000000000));
#115=VECTOR('',#114,1.00000000000000);
#116=LINE('',#113,#115);
#117=EDGE_CURVE('',#106,#75,#116,.T.);
#118=ORIENTED_EDGE('',*,*,#117,.T.);
#119=ORIENTED_EDGE('',*,*,#80,.F.);
#120=EDGE_LOOP('',(#104,#112,#118,#119));
#121=FACE_OUTER_BOUND('',#120,.T.);
#122=CARTESIAN_POINT('',(0.415354330582850,0.00242489397510204,-0.0988815872585020));
#123=DIRECTION('',(0.00000000000000,-6.01370805005293E-17,-1.00000000000000));
#124=DIRECTION('',(-1.00000000000000,-0.00000000000000,-0.00000000000000));
#125=AXIS2_PLACEMENT_3D('',#122,#123,#124);
#126=PLANE('',#125);
#127=ADVANCED_FACE('',(#121),#126,.T.);
#128=CARTESIAN_POINT('',(0.830708661165700,3.00242489397510,-0.0673855242664022));
#129=VERTEX_POINT('',#128);
#130=CARTESIAN_POINT('',(0.830708661165700,3.00242489397510,-0.0831335552664026));
#131=DIRECTION('',(0.00000000000000,-1.00000000000000,6.12323399573677E-17));
#132=DIRECTION('',(1.00000000000000,0.00000000000000,0.00000000000000));
#133=AXIS2_PLACEMENT_3D('',#130,#131,#132);
#134=CIRCLE('',#133,0.0157480310000000);
#135=EDGE_CURVE('',#98,#129,#134,.T.);
#136=ORIENTED_EDGE('',*,*,#135,.T.);
#137=CARTESIAN_POINT('',(0.830708661165700,-2.99757510602490,-0.0673855242664018));
#138=VERTEX_POINT('',#137);
#139=CARTESIAN_POINT('',(0.830708661165700,0.00242489397510204,-0.0673855242664020));
#140=DIRECTION('',(0.00000000000000,-1.00000000000000,6.01370805005293E-17));
#141=VECTOR('',#140,1.00000000000000);
#142=LINE('',#139,#141);
#143=EDGE_CURVE('',#129,#138,#142,.T.);
#144=ORIENTED_EDGE('',*,*,#143,.T.);
#145=CARTESIAN_POINT('',(0.830708661165700,-2.99757510602490,-0.0831335552664022));
#146=DIRECTION('',(0.00000000000000,1.00000000000000,-6.12323399573677E-17));
#147=DIRECTION('',(1.00000000000000,0.00000000000000,0.00000000000000));
#148=AXIS2_PLACEMENT_3D('',#145,#146,#147);
#149=CIRCLE('',#148,0.0157480310000000);
#150=EDGE_CURVE('',#138,#106,#149,.T.);
#151=ORIENTED_EDGE('',*,*,#150,.T.);
#152=ORIENTED_EDGE('',*,*,#111,.T.);
#153=EDGE_LOOP('',(#136,#144,#151,#152));
#154=FACE_OUTER_BOUND('',#153,.T.);
#155=CARTESIAN_POINT('',(0.830708661165700,0.00242489397510204,-0.0831335552664024));
#156=DIRECTION('',(0.00000000000000,1.00000000000000,-6.01370805005293E-17));
#157=DIRECTION('',(-1.00000000000000,0.00000000000000,0.00000000000000));
#158=AXIS2_PLACEMENT_3D('',#155,#156,#157);
#159=CYLINDRICAL_SURFACE('',#158,0.0157480310000000);
#160=ADVANCED_FACE('',(#154),#159,.T.);
#161=CARTESIAN_POINT('',(0.0551181101102003,3.00242489397510,-0.0673855232743024));
#162=VERTEX_POINT('',#161);
#163=CARTESIAN_POINT('',(0.0551181101102003,3.00242489397510,-0.0673855242664024));
#164=DIRECTION('',(-1.00000000000000,-0.00000000000000,-2.50504636815127E-16));
#165=VECTOR('',#164,1.00000000000000);
#166=LINE('',#163,#165);
#167=EDGE_CURVE('',#129,#162,#166,.T.);
#168=ORIENTED_EDGE('',*,*,#167,.T.);
#169=CARTESIAN_POINT('',(0.0551181101102003,-2.99757510602490,-0.0673855232743021));
#170=VERTEX_POINT('',#169);
#171=CARTESIAN_POINT('',(0.0551181101102003,0.00242489397510204,-0.0673855232743023));
#172=DIRECTION('',(0.00000000000000,1.00000000000000,-6.01370805005293E-17));
#173=VECTOR('',#172,1.00000000000000);
#174=LINE('',#171,#173);
#175=EDGE_CURVE('',#170,#162,#174,.T.);
#176=ORIENTED_EDGE('',*,*,#175,.F.);
#177=CARTESIAN_POINT('',(0.0551181101102003,-2.99757510602490,-0.0673855242664020));
#178=DIRECTION('',(1.00000000000000,0.00000000000000,2.50504636815127E-16));
#179=VECTOR('',#178,1.00000000000000);
#180=LINE('',#177,#179);
#181=EDGE_CURVE('',#170,#138,#180,.T.);
#182=ORIENTED_EDGE('',*,*,#181,.T.);
#183=ORIENTED_EDGE('',*,*,#143,.F.);
#184=EDGE_LOOP('',(#168,#176,#182,#183));
#185=FACE_OUTER_BOUND('',#184,.T.);
#186=CARTESIAN_POINT('',(0.442913385637950,0.00242489397510204,-0.0673855242664021));
#187=DIRECTION('',(-2.50504636815127E-16,6.01370805005293E-17,1.00000000000000));
#188=DIRECTION('',(1.00000000000000,0.00000000000000,2.50504636815127E-16));
#189=AXIS2_PLACEMENT_3D('',#186,#187,#188);
#190=PLANE('',#189);
#191=ADVANCED_FACE('',(#185),#190,.T.);
#192=CARTESIAN_POINT('',(0.0551181101102003,3.00242489397510,-0.0358894612743024));
#193=VERTEX_POINT('',#192);
#194=CARTESIAN_POINT('',(0.0551181101102003,3.00242489397510,-0.0516374922743024));
#195=DIRECTION('',(0.00000000000000,1.00000000000000,-6.12323399573677E-17));
#196=DIRECTION('',(1.00000000000000,0.00000000000000,0.00000000000000));
#197=AXIS2_PLACEMENT_3D('',#194,#195,#196);
#198=CIRCLE('',#197,0.0157480310000000);
#199=EDGE_CURVE('',#162,#193,#198,.T.);
#200=ORIENTED_EDGE('',*,*,#199,.T.);
#201=CARTESIAN_POINT('',(0.0551181101102003,-2.99757510602490,-0.0358894612743021));
#202=VERTEX_POINT('',#201);
#203=CARTESIAN_POINT('',(0.0551181101102003,0.00242489397510204,-0.0358894612743023));
#204=DIRECTION('',(0.00000000000000,-1.00000000000000,6.01370805005293E-17));
#205=VECTOR('',#204,1.00000000000000);
#206=LINE('',#203,#205);
#207=EDGE_CURVE('',#193,#202,#206,.T.);
#208=ORIENTED_EDGE('',*,*,#207,.T.);
#209=CARTESIAN_POINT('',(0.0551181101102003,-2.99757510602490,-0.0516374922743021));
#210=DIRECTION('',(0.00000000000000,-1.00000000000000,6.12323399573677E-17));
#211=DIRECTION('',(1.00000000000000,0.00000000000000,0.00000000000000));
#212=AXIS2_PLACEMENT_3D('',#209,#210,#211);
#213=CIRCLE('',#212,0.0157480310000000);
#214=EDGE_CURVE('',#202,#170,#213,.T.);
#215=ORIENTED_EDGE('',*,*,#214,.T.);
#216=ORIENTED_EDGE('',*,*,#175,.T.);
#217=EDGE_LOOP('',(#200,#208,#215,#216));
#218=FACE_OUTER_BOUND('',#217,.T.);
#219=CARTESIAN_POINT('',(0.0551181101102003,0.00242489397510204,-0.0516374922743023));
#220=DIRECTION('',(0.00000000000000,1.00000000000000,-6.01370805005293E-17));
#221=DIRECTION('',(1.00000000000000,0.00000000000000,0.00000000000000));
#222=AXIS2_PLACEMENT_3D('',#219,#220,#221);
#223=CYLINDRICAL_SURFACE('',#222,0.0157480310000000);
#224=ADVANCED_FACE('',(#218),#223,.F.);
#225=CARTESIAN_POINT('',(0.909448819394000,3.00242489397510,-0.0358894612743022));
#226=VERTEX_POINT('',#225);
#227=CARTESIAN_POINT('',(0.0551181101102003,3.00242489397510,-0.0358894612743022));
#228=DIRECTION('',(1.00000000000000,0.00000000000000,3.24880930932436E-17));
#229=VECTOR('',#228,1.00000000000000);
#230=LINE('',#227,#229);
#231=EDGE_CURVE('',#193,#226,#230,.T.);
#232=ORIENTED_EDGE('',*,*,#231,.T.);
#233=CARTESIAN_POINT('',(0.909448819394000,-2.99757510602490,-0.0358894612743018));
#234=VERTEX_POINT('',#233);
#235=CARTESIAN_POINT('',(0.909448819394000,0.00242489397510204,-0.0358894612743020));
#236=DIRECTION('',(0.00000000000000,1.00000000000000,-6.01370805005293E-17));
#237=VECTOR('',#236,1.00000000000000);
#238=LINE('',#235,#237);
#239=EDGE_CURVE('',#234,#226,#238,.T.);
#240=ORIENTED_EDGE('',*,*,#239,.F.);
#241=CARTESIAN_POINT('',(0.0551181101102003,-2.99757510602490,-0.0358894612743019));
#242=DIRECTION('',(-1.00000000000000,-0.00000000000000,-3.24880930932436E-17));
#243=VECTOR('',#242,1.00000000000000);
#244=LINE('',#241,#243);
#245=EDGE_CURVE('',#234,#202,#244,.T.);
#246=ORIENTED_EDGE('',*,*,#245,.T.);
#247=ORIENTED_EDGE('',*,*,#207,.F.);
#248=EDGE_LOOP('',(#232,#240,#246,#247));
#249=FACE_OUTER_BOUND('',#248,.T.);
#250=CARTESIAN_POINT('',(0.482283464752100,0.00242489397510204,-0.0358894612743020));
#251=DIRECTION('',(3.24880930932436E-17,-6.01370805005293E-17,-1.00000000000000));
#252=DIRECTION('',(-1.00000000000000,-0.00000000000000,-3.24880930932436E-17));
#253=AXIS2_PLACEMENT_3D('',#250,#251,#252);
#254=PLANE('',#253);
#255=ADVANCED_FACE('',(#249),#254,.T.);
#256=CARTESIAN_POINT('',(0.909448819394000,3.00242489397510,-0.00439339828220218));
#257=VERTEX_POINT('',#256);
#258=CARTESIAN_POINT('',(0.909448819394000,3.00242489397510,-0.0201414292822023));
#259=DIRECTION('',(0.00000000000000,-1.00000000000000,6.12323399573677E-17));
#260=DIRECTION('',(1.00000000000000,0.00000000000000,0.00000000000000));
#261=AXIS2_PLACEMENT_3D('',#258,#259,#260);
#262=CIRCLE('',#261,0.0157480310000000);
#263=EDGE_CURVE('',#226,#257,#262,.T.);
#264=ORIENTED_EDGE('',*,*,#263,.T.);
#265=CARTESIAN_POINT('',(0.909448819394000,-2.99757510602490,-0.00439339828220182));
#266=VERTEX_POINT('',#265);
#267=CARTESIAN_POINT('',(0.909448819394000,0.00242489397510204,-0.00439339828220200));
#268=DIRECTION('',(0.00000000000000,-1.00000000000000,6.01370805005293E-17));
#269=VECTOR('',#268,1.00000000000000);
#270=LINE('',#267,#269);
#271=EDGE_CURVE('',#257,#266,#270,.T.);
#272=ORIENTED_EDGE('',*,*,#271,.T.);
#273=CARTESIAN_POINT('',(0.909448819394000,-2.99757510602490,-0.0201414292822019));
#274=DIRECTION('',(0.00000000000000,1.00000000000000,-6.12323399573677E-17));
#275=DIRECTION('',(1.00000000000000,0.00000000000000,0.00000000000000));
#276=AXIS2_PLACEMENT_3D('',#273,#274,#275);
#277=CIRCLE('',#276,0.0157480310000000);
#278=EDGE_CURVE('',#266,#234,#277,.T.);
#279=ORIENTED_EDGE('',*,*,#278,.T.);
#280=ORIENTED_EDGE('',*,*,#239,.T.);
#281=EDGE_LOOP('',(#264,#272,#279,#280));
#282=FACE_OUTER_BOUND('',#281,.T.);
#283=CARTESIAN_POINT('',(0.909448819394000,0.00242489397510204,-0.0201414292822021));
#284=DIRECTION('',(0.00000000000000,1.00000000000000,-6.01370805005293E-17));
#285=DIRECTION('',(-1.00000000000000,0.00000000000000,0.00000000000000));
#286=AXIS2_PLACEMENT_3D('',#283,#284,#285);
#287=CYLINDRICAL_SURFACE('',#286,0.0157480310000000);
#288=ADVANCED_FACE('',(#282),#287,.T.);
#289=CARTESIAN_POINT('',(0.0543700791102007,3.00242489397510,-0.00439339828220192));
#290=VERTEX_POINT('',#289);
#291=CARTESIAN_POINT('',(0.0543700791102002,3.00242489397510,-0.00439339828220205));
#292=DIRECTION('',(-1.00000000000000,0.00000000000000,1.62298361004841E-16));
#293=VECTOR('',#292,1.00000000000000);
#294=LINE('',#291,#293);
#295=EDGE_CURVE('',#257,#290,#294,.T.);
#296=ORIENTED_EDGE('',*,*,#295,.T.);
#297=CARTESIAN_POINT('',(0.0543700791102007,-2.99757510602490,-0.00439339828220156));
#298=VERTEX_POINT('',#297);
#299=CARTESIAN_POINT('',(0.0543700791102007,0.00242489397510204,-0.00439339828220174));
#300=DIRECTION('',(0.00000000000000,1.00000000000000,-6.01370805005293E-17));
#301=VECTOR('',#300,1.00000000000000);
#302=LINE('',#299,#301);
#303=EDGE_CURVE('',#298,#290,#302,.T.);
#304=ORIENTED_EDGE('',*,*,#303,.F.);
#305=CARTESIAN_POINT('',(0.0543700791102002,-2.99757510602490,-0.00439339828220169));
#306=DIRECTION('',(1.00000000000000,0.00000000000000,-1.62298361004841E-16));
#307=VECTOR('',#306,1.00000000000000);
#308=LINE('',#305,#307);
#309=EDGE_CURVE('',#298,#266,#308,.T.);
#310=ORIENTED_EDGE('',*,*,#309,.T.);
#311=ORIENTED_EDGE('',*,*,#271,.F.);
#312=EDGE_LOOP('',(#296,#304,#310,#311));
#313=FACE_OUTER_BOUND('',#312,.T.);
#314=CARTESIAN_POINT('',(0.481909449252100,0.00242489397510204,-0.00439339828220194));
#315=DIRECTION('',(1.62298361004841E-16,6.01370805005293E-17,1.00000000000000));
#316=DIRECTION('',(1.00000000000000,0.00000000000000,-1.62298361004841E-16));
#317=AXIS2_PLACEMENT_3D('',#314,#315,#316);
#318=PLANE('',#317);
#319=ADVANCED_FACE('',(#313),#318,.T.);
#320=CARTESIAN_POINT('',(0.0393700791102003,3.00242489397510,0.0106066017177980));
#321=VERTEX_POINT('',#320);
#322=CARTESIAN_POINT('',(0.0543700791102006,3.00242489397510,0.0106066017177981));
#323=DIRECTION('',(0.00000000000000,1.00000000000000,-6.12323399573677E-17));
#324=DIRECTION('',(-3.81017707262198E-15,6.12323399573677E-17,1.00000000000000));
#325=AXIS2_PLACEMENT_3D('',#322,#323,#324);
#326=CIRCLE('',#325,0.0150000000000000);
#327=EDGE_CURVE('',#290,#321,#326,.T.);
#328=ORIENTED_EDGE('',*,*,#327,.T.);
#329=CARTESIAN_POINT('',(0.0393700791102003,-2.99757510602490,0.0106066017177984));
#330=VERTEX_POINT('',#329);
#331=CARTESIAN_POINT('',(0.0393700791102003,0.00242489397510204,0.0106066017177982));
#332=DIRECTION('',(0.00000000000000,-1.00000000000000,6.01370805005293E-17));
#333=VECTOR('',#332,1.00000000000000);
#334=LINE('',#331,#333);
#335=EDGE_CURVE('',#321,#330,#334,.T.);
#336=ORIENTED_EDGE('',*,*,#335,.T.);
#337=CARTESIAN_POINT('',(0.0543700791102006,-2.99757510602490,0.0106066017177984));
#338=DIRECTION('',(0.00000000000000,-1.00000000000000,6.12323399573677E-17));
#339=DIRECTION('',(-3.81017707262198E-15,6.12323399573677E-17,1.00000000000000));
#340=AXIS2_PLACEMENT_3D('',#337,#338,#339);
#341=CIRCLE('',#340,0.0150000000000000);
#342=EDGE_CURVE('',#330,#298,#341,.T.);
#343=ORIENTED_EDGE('',*,*,#342,.T.);
#344=ORIENTED_EDGE('',*,*,#303,.T.);
#345=EDGE_LOOP('',(#328,#336,#343,#344));
#346=FACE_OUTER_BOUND('',#345,.T.);
#347=CARTESIAN_POINT('',(0.0543700791102006,0.00242489397510204,0.0106066017177983));
#348=DIRECTION('',(0.00000000000000,1.00000000000000,-6.01370805005293E-17));
#349=DIRECTION('',(-3.81017707262198E-15,6.01370805005293E-17,1.00000000000000));
#350=AXIS2_PLACEMENT_3D('',#347,#348,#349);
#351=CYLINDRICAL_SURFACE('',#350,0.0150000000000000);
#352=ADVANCED_FACE('',(#346),#351,.F.);
#353=CARTESIAN_POINT('',(0.0393700791102001,3.00242489397510,0.0593467591980976));
#354=VERTEX_POINT('',#353);
#355=CARTESIAN_POINT('',(0.0393700791102003,3.00242489397510,0.0106066017177980));
#356=DIRECTION('',(-3.84385576680216E-15,6.22846999250350E-17,1.00000000000000));
#357=VECTOR('',#356,1.00000000000000);
#358=LINE('',#355,#357);
#359=EDGE_CURVE('',#321,#354,#358,.T.);
#360=ORIENTED_EDGE('',*,*,#359,.T.);
#361=CARTESIAN_POINT('',(0.0393700791102001,-2.99757510602490,0.0593467591980980));
#362=VERTEX_POINT('',#361);
#363=CARTESIAN_POINT('',(0.0393700791102001,0.00242489397510205,0.0593467591980978));
#364=DIRECTION('',(0.00000000000000,1.00000000000000,-6.01370805005293E-17));
#365=VECTOR('',#364,1.00000000000000);
#366=LINE('',#363,#365);
#367=EDGE_CURVE('',#362,#354,#366,.T.);
#368=ORIENTED_EDGE('',*,*,#367,.F.);
#369=CARTESIAN_POINT('',(0.0393700791102003,-2.99757510602490,0.0106066017177984));
#370=DIRECTION('',(3.84385576680216E-15,-6.22846999250350E-17,-1.00000000000000));
#371=VECTOR('',#370,1.00000000000000);
#372=LINE('',#369,#371);
#373=EDGE_CURVE('',#362,#330,#372,.T.);
#374=ORIENTED_EDGE('',*,*,#373,.T.);
#375=ORIENTED_EDGE('',*,*,#335,.F.);
#376=EDGE_LOOP('',(#360,#368,#374,#375));
#377=FACE_OUTER_BOUND('',#376,.T.);
#378=CARTESIAN_POINT('',(0.0393700791102002,0.00242489397510204,0.0349766804579480));
#379=DIRECTION('',(1.00000000000000,2.31158263680605E-31,3.84385576680216E-15));
#380=DIRECTION('',(3.84385576680216E-15,-6.22846999250350E-17,-1.00000000000000));
#381=AXIS2_PLACEMENT_3D('',#378,#379,#380);
#382=PLANE('',#381);
#383=ADVANCED_FACE('',(#377),#382,.T.);
#384=CARTESIAN_POINT('',(0.0543700791101998,3.00242489397510,0.0743467591980976));
#385=VERTEX_POINT('',#384);
#386=CARTESIAN_POINT('',(0.0543700791101998,3.00242489397510,0.0593467591980976));
#387=DIRECTION('',(0.00000000000000,1.00000000000000,-6.12323399573677E-17));
#388=DIRECTION('',(1.00000000000000,0.00000000000000,0.00000000000000));
#389=AXIS2_PLACEMENT_3D('',#386,#387,#388);
#390=CIRCLE('',#389,0.0150000000000000);
#391=EDGE_CURVE('',#354,#385,#390,.T.);
#392=ORIENTED_EDGE('',*,*,#391,.T.);
#393=CARTESIAN_POINT('',(0.0543700791101998,-2.99757510602490,0.0743467591980979));
#394=VERTEX_POINT('',#393);
#395=CARTESIAN_POINT('',(0.0543700791101998,0.00242489397510205,0.0743467591980977));
#396=DIRECTION('',(0.00000000000000,-1.00000000000000,6.01370805005293E-17));
#397=VECTOR('',#396,1.00000000000000);
#398=LINE('',#395,#397);
#399=EDGE_CURVE('',#385,#394,#398,.T.);
#400=ORIENTED_EDGE('',*,*,#399,.T.);
#401=CARTESIAN_POINT('',(0.0543700791101998,-2.99757510602490,0.0593467591980979));
#402=DIRECTION('',(0.00000000000000,-1.00000000000000,6.12323399573677E-17));
#403=DIRECTION('',(1.00000000000000,0.00000000000000,0.00000000000000));
#404=AXIS2_PLACEMENT_3D('',#401,#402,#403);
#405=CIRCLE('',#404,0.0150000000000000);
#406=EDGE_CURVE('',#394,#362,#405,.T.);
#407=ORIENTED_EDGE('',*,*,#406,.T.);
#408=ORIENTED_EDGE('',*,*,#367,.T.);
#409=EDGE_LOOP('',(#392,#400,#407,#408));
#410=FACE_OUTER_BOUND('',#409,.T.);
#411=CARTESIAN_POINT('',(0.0543700791101998,0.00242489397510205,0.0593467591980977));
#412=DIRECTION('',(0.00000000000000,1.00000000000000,-6.01370805005293E-17));
#413=DIRECTION('',(1.00000000000000,0.00000000000000,0.00000000000000));
#414=AXIS2_PLACEMENT_3D('',#411,#412,#413);
#415=CYLINDRICAL_SURFACE('',#414,0.0150000000000000);
#416=ADVANCED_FACE('',(#410),#415,.F.);
#417=CARTESIAN_POINT('',(0.196850394071000,3.00242489397510,0.0743467591980977));
#418=VERTEX_POINT('',#417);
#419=CARTESIAN_POINT('',(0.0543700791102000,3.00242489397510,0.0743467591980977));
#420=DIRECTION('',(1.00000000000000,0.00000000000000,9.74014397120936E-16));
#421=VECTOR('',#420,1.00000000000000);
#422=LINE('',#419,#421);
#423=EDGE_CURVE('',#385,#418,#422,.T.);
#424=ORIENTED_EDGE('',*,*,#423,.T.);
#425=CARTESIAN_POINT('',(0.196850394071000,-2.99757510602490,0.0743467591980981));
#426=VERTEX_POINT('',#425);
#427=CARTESIAN_POINT('',(0.196850394071000,0.00242489397510205,0.0743467591980979));
#428=DIRECTION('',(0.00000000000000,1.00000000000000,-6.01370805005293E-17));
#429=VECTOR('',#428,1.00000000000000);
#430=LINE('',#427,#429);
#431=EDGE_CURVE('',#426,#418,#430,.T.);
#432=ORIENTED_EDGE('',*,*,#431,.F.);
#433=CARTESIAN_POINT('',(0.0543700791102000,-2.99757510602490,0.0743467591980981));
#434=DIRECTION('',(-1.00000000000000,-0.00000000000000,-9.74014397120936E-16));
#435=VECTOR('',#434,1.00000000000000);
#436=LINE('',#433,#435);
#437=EDGE_CURVE('',#426,#394,#436,.T.);
#438=ORIENTED_EDGE('',*,*,#437,.T.);
#439=ORIENTED_EDGE('',*,*,#399,.F.);
#440=EDGE_LOOP('',(#424,#432,#438,#439));
#441=FACE_OUTER_BOUND('',#440,.T.);
#442=CARTESIAN_POINT('',(0.125610236590600,0.00242489397510205,0.0743467591980979));
#443=DIRECTION('',(9.74014397120936E-16,-6.01370805005293E-17,-1.00000000000000));
#444=DIRECTION('',(-1.00000000000000,-0.00000000000000,-9.74014397120936E-16));
#445=AXIS2_PLACEMENT_3D('',#442,#443,#444);
#446=PLANE('',#445);
#447=ADVANCED_FACE('',(#441),#446,.T.);
#448=CARTESIAN_POINT('',(0.196850394071000,3.00242489397510,0.113716838308298));
#449=VERTEX_POINT('',#448);
#450=CARTESIAN_POINT('',(0.196850394071000,3.00242489397510,0.0940317981980977));
#451=DIRECTION('',(0.00000000000000,-1.00000000000000,6.12323399573677E-17));
#452=DIRECTION('',(0.00000000000000,6.12323399573677E-17,1.00000000000000));
#453=AXIS2_PLACEMENT_3D('',#450,#451,#452);
#454=CIRCLE('',#453,0.0196850390000000);
#455=EDGE_CURVE('',#418,#449,#454,.T.);
#456=ORIENTED_EDGE('',*,*,#455,.T.);
#457=CARTESIAN_POINT('',(0.196850394071000,-2.99757510602490,0.113716838308298));
#458=VERTEX_POINT('',#457);
#459=CARTESIAN_POINT('',(0.196850394071000,0.00242489397510205,0.113716838308298));
#460=DIRECTION('',(0.00000000000000,-1.00000000000000,6.01370805005293E-17));
#461=VECTOR('',#460,1.00000000000000);
#462=LINE('',#459,#461);
#463=EDGE_CURVE('',#449,#458,#462,.T.);
#464=ORIENTED_EDGE('',*,*,#463,.T.);
#465=CARTESIAN_POINT('',(0.196850394071000,-2.99757510602490,0.0940317981980981));
#466=DIRECTION('',(0.00000000000000,1.00000000000000,-6.12323399573677E-17));
#467=DIRECTION('',(0.00000000000000,6.12323399573677E-17,1.00000000000000));
#468=AXIS2_PLACEMENT_3D('',#465,#466,#467);
#469=CIRCLE('',#468,0.0196850390000000);
#470=EDGE_CURVE('',#458,#426,#469,.T.);
#471=ORIENTED_EDGE('',*,*,#470,.T.);
#472=ORIENTED_EDGE('',*,*,#431,.T.);
#473=EDGE_LOOP('',(#456,#464,#471,#472));
#474=FACE_OUTER_BOUND('',#473,.T.);
#475=CARTESIAN_POINT('',(0.196850394071000,0.00242489397510205,0.0940317981980979));
#476=DIRECTION('',(0.00000000000000,1.00000000000000,-6.01370805005293E-17));
#477=DIRECTION('',(-1.00000000000000,0.00000000000000,0.00000000000000));
#478=AXIS2_PLACEMENT_3D('',#475,#476,#477);
#479=CYLINDRICAL_SURFACE('',#478,0.0196850390000000);
#480=ADVANCED_FACE('',(#474),#479,.T.);
#481=CARTESIAN_POINT('',(0.0196850390000001,3.00242489397510,0.113716838308298));
#482=DIRECTION('',(-1.00000000000000,-0.00000000000000,-0.00000000000000));
#483=VECTOR('',#482,1.00000000000000);
#484=LINE('',#481,#483);
#485=EDGE_CURVE('',#449,#25,#484,.T.);
#486=ORIENTED_EDGE('',*,*,#485,.T.);
#487=ORIENTED_EDGE('',*,*,#56,.F.);
#488=CARTESIAN_POINT('',(0.0196850390000001,-2.99757510602490,0.113716838308298));
#489=DIRECTION('',(1.00000000000000,0.00000000000000,0.00000000000000));
#490=VECTOR('',#489,1.00000000000000);
#491=LINE('',#488,#490);
#492=EDGE_CURVE('',#44,#458,#491,.T.);
#493=ORIENTED_EDGE('',*,*,#492,.T.);
#494=ORIENTED_EDGE('',*,*,#463,.F.);
#495=EDGE_LOOP('',(#486,#487,#493,#494));
#496=FACE_OUTER_BOUND('',#495,.T.);
#497=CARTESIAN_POINT('',(0.108267716535500,0.00242489397510205,0.113716838308298));
#498=DIRECTION('',(-0.00000000000000,6.01370805005293E-17,1.00000000000000));
#499=DIRECTION('',(1.00000000000000,0.00000000000000,0.00000000000000));
#500=AXIS2_PLACEMENT_3D('',#497,#498,#499);
#501=PLANE('',#500);
#502=ADVANCED_FACE('',(#496),#501,.T.);
#503=ORIENTED_EDGE('',*,*,#33,.F.);
#504=ORIENTED_EDGE('',*,*,#485,.F.);
#505=ORIENTED_EDGE('',*,*,#455,.F.);
#506=ORIENTED_EDGE('',*,*,#423,.F.);
#507=ORIENTED_EDGE('',*,*,#391,.F.);
#508=ORIENTED_EDGE('',*,*,#359,.F.);
#509=ORIENTED_EDGE('',*,*,#327,.F.);
#510=ORIENTED_EDGE('',*,*,#295,.F.);
#511=ORIENTED_EDGE('',*,*,#263,.F.);
#512=ORIENTED_EDGE('',*,*,#231,.F.);
#513=ORIENTED_EDGE('',*,*,#199,.F.);
#514=ORIENTED_EDGE('',*,*,#167,.F.);
#515=ORIENTED_EDGE('',*,*,#135,.F.);
#516=ORIENTED_EDGE('',*,*,#103,.F.);
#517=ORIENTED_EDGE('',*,*,#72,.F.);
#518=EDGE_LOOP('',(#503,#504,#505,#506,#507,#508,#509,#510,#511,#512,#513,#514,#515,#516,#517));
#519=FACE_OUTER_BOUND('',#518,.T.);
#520=CARTESIAN_POINT('',(0.0750182085225504,3.00242489397510,0.113716838308298));
#521=DIRECTION('',(0.00000000000000,1.00000000000000,-5.92140223307176E-17));
#522=DIRECTION('',(-1.00000000000000,0.00000000000000,0.00000000000000));
#523=AXIS2_PLACEMENT_3D('',#520,#521,#522);
#524=PLANE('',#523);
#525=ADVANCED_FACE('',(#519),#524,.T.);
#526=ORIENTED_EDGE('',*,*,#470,.F.);
#527=ORIENTED_EDGE('',*,*,#492,.F.);
#528=ORIENTED_EDGE('',*,*,#50,.F.);
#529=ORIENTED_EDGE('',*,*,#86,.F.);
#530=ORIENTED_EDGE('',*,*,#117,.F.);
#531=ORIENTED_EDGE('',*,*,#150,.F.);
#532=ORIENTED_EDGE('',*,*,#181,.F.);
#533=ORIENTED_EDGE('',*,*,#214,.F.);
#534=ORIENTED_EDGE('',*,*,#245,.F.);
#535=ORIENTED_EDGE('',*,*,#278,.F.);
#536=ORIENTED_EDGE('',*,*,#309,.F.);
#537=ORIENTED_EDGE('',*,*,#342,.F.);
#538=ORIENTED_EDGE('',*,*,#373,.F.);
#539=ORIENTED_EDGE('',*,*,#406,.F.);
#540=ORIENTED_EDGE('',*,*,#437,.F.);
#541=EDGE_LOOP('',(#526,#527,#528,#529,#530,#531,#532,#533,#534,#535,#536,#537,#538,#539,#540));
#542=FACE_OUTER_BOUND('',#541,.T.);
#543=CARTESIAN_POINT('',(0.0750182085225504,-2.99757510602490,0.113716838308298));
#544=DIRECTION('',(0.00000000000000,1.00000000000000,-5.92140223307176E-17));
#545=DIRECTION('',(-1.00000000000000,0.00000000000000,0.00000000000000));
#546=AXIS2_PLACEMENT_3D('',#543,#544,#545);
#547=PLANE('',#546);
#548=ADVANCED_FACE('',(#542),#547,.F.);
#549=CLOSED_SHELL('',(#65,#96,#127,#160,#191,#224,#255,#288,#319,#352,#383,#416,#447,#480,#502,#525,#548));
#550=MANIFOLD_SOLID_BREP('',#549);
#551=COLOUR_RGB('',1.00000000000000,0.00000000000000,0.00000000000000);
#552=FILL_AREA_STYLE_COLOUR('',#551);
#553=FILL_AREA_STYLE('',(#552));
#554=SURFACE_STYLE_FILL_AREA(#553);
#555=SURFACE_SIDE_STYLE('',(#554));
#556=SURFACE_STYLE_USAGE(.BOTH.,#555);
#557=PRESENTATION_STYLE_ASSIGNMENT((#556));
#558=STYLED_ITEM('',(#557),#550);
#559=ADVANCED_BREP_SHAPE_REPRESENTATION('',(#550,#23),#18);
#560=PRODUCT('', '', ' ',(#2));
#561=PRODUCT_DEFINITION_FORMATION_WITH_SPECIFIED_SOURCE (' ', ' ', #560, .NOT_KNOWN.) ;
#562=PRODUCT_CATEGORY('part','') ;
#563=PRODUCT_RELATED_PRODUCT_CATEGORY('detail', ' ', (#560)) ;
#564=PRODUCT_CATEGORY_RELATIONSHIP(' ', ' ', #562, #563);
#565=PRODUCT_DEFINITION('', '', #561, #1);
#566=PRODUCT_DEFINITION_SHAPE('NONE', 'NONE', #565);
#567=SHAPE_DEFINITION_REPRESENTATION(#566, #559);
#568=PRESENTATION_LAYER_ASSIGNMENT('1','Unnamed [1]',(#550));
#569=MECHANICAL_DESIGN_GEOMETRIC_PRESENTATION_REPRESENTATION('',(#558), #18);
ENDSEC;
END-ISO-10303-21;
