ISO-10303-21;
HEADER;
FILE_DESCRIPTION(('', 'CAx-IF Rec.Pracs.---Representation and Presentation of Product Manufacturing Information (PMI)---4.0---2014-10-13'),'2;1');
FILE_NAME('K:/STP PART FILES/SG2119.STP', '2021-08-05T13:18:33',(''), (''), 'Kubotek Kosmos Version 3.0.10279.10279', 'KeyCreator Pro', '');
FILE_SCHEMA(('AP242_MANAGED_MODEL_BASED_3D_ENGINEERING_MIM_LF  { 1 0 10303 442 1 1 4 }'));
ENDSEC;
DATA;
#1=PRODUCT_DEFINITION_CONTEXT('',#4,'design');
#2=PRODUCT_CONTEXT('',#4,'mechanical');
#3=APPLICATION_PROTOCOL_DEFINITION('international standard','ap242_managed_model_based_3d_engineering',2011,#4);
#4=APPLICATION_CONTEXT('managed model based 3d engineering');
#10=DIMENSIONAL_EXPONENTS(1.0,0.0,0.0,0.0,0.0,0.0,0.0);
#11=DIMENSIONAL_EXPONENTS(0.0,0.0,0.0,0.0,0.0,0.0,0.0);
#12=(LENGTH_UNIT()NAMED_UNIT(*)SI_UNIT(.MILLI.,.METRE.));
#13=(NAMED_UNIT(*)PLANE_ANGLE_UNIT()SI_UNIT($,.RADIAN.));
#14=(NAMED_UNIT(*)SI_UNIT($,.STERADIAN.)SOLID_ANGLE_UNIT());
#15=LENGTH_MEASURE_WITH_UNIT(LENGTH_MEASURE(25.4),#12);
#16= (CONVERSION_BASED_UNIT('INCH',#15)LENGTH_UNIT()NAMED_UNIT(#10));
#17=UNCERTAINTY_MEASURE_WITH_UNIT(LENGTH_MEASURE(1.0E-006),#16,'','');
#18=(GEOMETRIC_REPRESENTATION_CONTEXT(3)GLOBAL_UNCERTAINTY_ASSIGNED_CONTEXT((#17))GLOBAL_UNIT_ASSIGNED_CONTEXT((#16,#13,#14))REPRESENTATION_CONTEXT('NONE','WORKSPACE'));
#20=CARTESIAN_POINT('',(0.00000000000000,0.00000000000000,0.00000000000000));
#21=DIRECTION('',(0.00000000000000,0.00000000000000,1.00000000000000));
#22=DIRECTION('',(1.00000000000000,0.00000000000000,0.00000000000000));
#23=AXIS2_PLACEMENT_3D('',#20,#21,#22);
#24=CARTESIAN_POINT('',(-0.223456555303593,-3.06652817330196,-0.0955845199058816));
#25=VERTEX_POINT('',#24);
#26=CARTESIAN_POINT('',(-0.263278060703177,-3.06652817330196,-0.0993591334901973));
#27=VERTEX_POINT('',#26);
#28=CARTESIAN_POINT('',(-0.243367308003385,-3.06652817330196,-0.0974718266980394));
#29=DIRECTION('',(1.36845553156720E-48,1.00000000000000,-6.12323399573676E-17));
#30=DIRECTION('',(-1.00000000000000,7.49879891330929E-33,1.22464679914735E-16));
#31=AXIS2_PLACEMENT_3D('',#28,#29,#30);
#32=CIRCLE('',#31,0.0199999999999998);
#33=EDGE_CURVE('',#25,#27,#32,.T.);
#34=ORIENTED_EDGE('',*,*,#33,.T.);
#35=CARTESIAN_POINT('',(-0.263278060703177,2.93347182669804,-0.0993591334901973));
#36=VERTEX_POINT('',#35);
#37=CARTESIAN_POINT('',(-0.263278060703177,-0.0665281733019594,-0.0993591334901973));
#38=DIRECTION('',(0.00000000000000,1.00000000000000,0.00000000000000));
#39=VECTOR('',#38,1.00000000000000);
#40=LINE('',#37,#39);
#41=EDGE_CURVE('',#27,#36,#40,.T.);
#42=ORIENTED_EDGE('',*,*,#41,.T.);
#43=CARTESIAN_POINT('',(-0.223456555303593,2.93347182669804,-0.0955845199058816));
#44=VERTEX_POINT('',#43);
#45=CARTESIAN_POINT('',(-0.243367308003385,2.93347182669804,-0.0974718266980394));
#46=DIRECTION('',(-1.36845553156720E-48,-1.00000000000000,6.12323399573676E-17));
#47=DIRECTION('',(-1.00000000000000,7.49879891330929E-33,1.22464679914735E-16));
#48=AXIS2_PLACEMENT_3D('',#45,#46,#47);
#49=CIRCLE('',#48,0.0199999999999998);
#50=EDGE_CURVE('',#36,#44,#49,.T.);
#51=ORIENTED_EDGE('',*,*,#50,.T.);
#52=CARTESIAN_POINT('',(-0.223456555303593,-0.0665281733019594,-0.0955845199058816));
#53=DIRECTION('',(0.00000000000000,-1.00000000000000,0.00000000000000));
#54=VECTOR('',#53,1.00000000000000);
#55=LINE('',#52,#54);
#56=EDGE_CURVE('',#44,#25,#55,.T.);
#57=ORIENTED_EDGE('',*,*,#56,.T.);
#58=EDGE_LOOP('',(#34,#42,#51,#57));
#59=FACE_OUTER_BOUND('',#58,.T.);
#60=CARTESIAN_POINT('',(-0.243367308003385,-0.0665281733019594,-0.0974718266980394));
#61=DIRECTION('',(0.00000000000000,-1.00000000000000,0.00000000000000));
#62=DIRECTION('',(-1.00000000000000,0.00000000000000,1.22464679914735E-16));
#63=AXIS2_PLACEMENT_3D('',#60,#61,#62);
#64=CYLINDRICAL_SURFACE('',#63,0.0199999999999998);
#65=ADVANCED_FACE('',(#59),#64,.T.);
#66=CARTESIAN_POINT('',(-0.282128444592888,-3.06652817330196,0.0995090809854808));
#67=VERTEX_POINT('',#66);
#68=CARTESIAN_POINT('',(-0.263278060703177,-3.06652817330196,-0.0993591334901973));
#69=DIRECTION('',(-0.0943653396078731,0.00000000000000,0.995537634989602));
#70=VECTOR('',#69,1.00000000000000);
#71=LINE('',#68,#70);
#72=EDGE_CURVE('',#27,#67,#71,.T.);
#73=ORIENTED_EDGE('',*,*,#72,.T.);
#74=CARTESIAN_POINT('',(-0.282128444592888,2.93347182669804,0.0995090809854808));
#75=VERTEX_POINT('',#74);
#76=CARTESIAN_POINT('',(-0.282128444592888,-0.0665281733019594,0.0995090809854808));
#77=DIRECTION('',(0.00000000000000,-1.00000000000000,0.00000000000000));
#78=VECTOR('',#77,1.00000000000000);
#79=LINE('',#76,#78);
#80=EDGE_CURVE('',#75,#67,#79,.T.);
#81=ORIENTED_EDGE('',*,*,#80,.F.);
#82=CARTESIAN_POINT('',(-0.263278060703177,2.93347182669804,-0.0993591334901973));
#83=DIRECTION('',(0.0943653396078731,0.00000000000000,-0.995537634989602));
#84=VECTOR('',#83,1.00000000000000);
#85=LINE('',#82,#84);
#86=EDGE_CURVE('',#75,#36,#85,.T.);
#87=ORIENTED_EDGE('',*,*,#86,.T.);
#88=ORIENTED_EDGE('',*,*,#41,.F.);
#89=EDGE_LOOP('',(#73,#81,#87,#88));
#90=FACE_OUTER_BOUND('',#89,.T.);
#91=CARTESIAN_POINT('',(-0.272703252648033,-0.0665281733019594,7.49737476417739E-05));
#92=DIRECTION('',(-0.995537634989602,-0.00000000000000,-0.0943653396078731));
#93=DIRECTION('',(0.0943653396078731,-0.00000000000000,-0.995537634989602));
#94=AXIS2_PLACEMENT_3D('',#91,#92,#93);
#95=PLANE('',#94);
#96=ADVANCED_FACE('',(#90),#95,.T.);
#97=CARTESIAN_POINT('',(-0.285543269141939,-3.06652817330196,0.106129895987148));
#98=VERTEX_POINT('',#97);
#99=CARTESIAN_POINT('',(-0.292083820942784,-3.06652817330196,0.0985654275894010));
#100=DIRECTION('',(-1.36845553156720E-48,-1.00000000000000,6.12323399573676E-17));
#101=DIRECTION('',(-1.00000000000000,7.49879891330929E-33,1.22464679914735E-16));
#102=AXIS2_PLACEMENT_3D('',#99,#100,#101);
#103=CIRCLE('',#102,0.00999999999999973);
#104=EDGE_CURVE('',#67,#98,#103,.T.);
#105=ORIENTED_EDGE('',*,*,#104,.T.);
#106=CARTESIAN_POINT('',(-0.285543269141939,2.93347182669804,0.106129895987148));
#107=VERTEX_POINT('',#106);
#108=CARTESIAN_POINT('',(-0.285543269141939,-0.0665281733019594,0.106129895987148));
#109=DIRECTION('',(0.00000000000000,1.00000000000000,0.00000000000000));
#110=VECTOR('',#109,1.00000000000000);
#111=LINE('',#108,#110);
#112=EDGE_CURVE('',#98,#107,#111,.T.);
#113=ORIENTED_EDGE('',*,*,#112,.T.);
#114=CARTESIAN_POINT('',(-0.292083820942784,2.93347182669804,0.0985654275894010));
#115=DIRECTION('',(1.36845553156720E-48,1.00000000000000,-6.12323399573676E-17));
#116=DIRECTION('',(-1.00000000000000,7.49879891330929E-33,1.22464679914735E-16));
#117=AXIS2_PLACEMENT_3D('',#114,#115,#116);
#118=CIRCLE('',#117,0.00999999999999973);
#119=EDGE_CURVE('',#107,#75,#118,.T.);
#120=ORIENTED_EDGE('',*,*,#119,.T.);
#121=ORIENTED_EDGE('',*,*,#80,.T.);
#122=EDGE_LOOP('',(#105,#113,#120,#121));
#123=FACE_OUTER_BOUND('',#122,.T.);
#124=CARTESIAN_POINT('',(-0.292083820942784,-0.0665281733019594,0.0985654275894010));
#125=DIRECTION('',(0.00000000000000,-1.00000000000000,0.00000000000000));
#126=DIRECTION('',(-1.00000000000000,0.00000000000000,1.22464679914735E-16));
#127=AXIS2_PLACEMENT_3D('',#124,#125,#126);
#128=CYLINDRICAL_SURFACE('',#127,0.00999999999999973);
#129=ADVANCED_FACE('',(#123),#128,.F.);
#130=CARTESIAN_POINT('',(-0.270499999999999,-3.06652817330196,0.146528173301963));
#131=VERTEX_POINT('',#130);
#132=CARTESIAN_POINT('',(-0.270499999999999,-3.06652817330196,0.123528173301962));
#133=DIRECTION('',(1.36845553156720E-48,1.00000000000000,-6.12323399573676E-17));
#134=DIRECTION('',(-1.00000000000000,7.49879891330929E-33,1.22464679914735E-16));
#135=AXIS2_PLACEMENT_3D('',#132,#133,#134);
#136=CIRCLE('',#135,0.0230000000000005);
#137=EDGE_CURVE('',#98,#131,#136,.T.);
#138=ORIENTED_EDGE('',*,*,#137,.T.);
#139=CARTESIAN_POINT('',(-0.270499999999999,2.93347182669804,0.146528173301963));
#140=VERTEX_POINT('',#139);
#141=CARTESIAN_POINT('',(-0.270499999999999,-0.0665281733019594,0.146528173301963));
#142=DIRECTION('',(0.00000000000000,1.00000000000000,0.00000000000000));
#143=VECTOR('',#142,1.00000000000000);
#144=LINE('',#141,#143);
#145=EDGE_CURVE('',#131,#140,#144,.T.);
#146=ORIENTED_EDGE('',*,*,#145,.T.);
#147=CARTESIAN_POINT('',(-0.270499999999999,2.93347182669804,0.123528173301962));
#148=DIRECTION('',(-1.36845553156720E-48,-1.00000000000000,6.12323399573676E-17));
#149=DIRECTION('',(-1.00000000000000,7.49879891330929E-33,1.22464679914735E-16));
#150=AXIS2_PLACEMENT_3D('',#147,#148,#149);
#151=CIRCLE('',#150,0.0230000000000005);
#152=EDGE_CURVE('',#140,#107,#151,.T.);
#153=ORIENTED_EDGE('',*,*,#152,.T.);
#154=ORIENTED_EDGE('',*,*,#112,.F.);
#155=EDGE_LOOP('',(#138,#146,#153,#154));
#156=FACE_OUTER_BOUND('',#155,.T.);
#157=CARTESIAN_POINT('',(-0.270499999999999,-0.0665281733019594,0.123528173301962));
#158=DIRECTION('',(0.00000000000000,-1.00000000000000,0.00000000000000));
#159=DIRECTION('',(0.937135753179476,0.00000000000000,-0.348965012734422));
#160=AXIS2_PLACEMENT_3D('',#157,#158,#159);
#161=CYLINDRICAL_SURFACE('',#160,0.0230000000000005);
#162=ADVANCED_FACE('',(#156),#161,.T.);
#163=CARTESIAN_POINT('',(0.270500000000000,-3.06652817330196,0.146528173301961));
#164=VERTEX_POINT('',#163);
#165=CARTESIAN_POINT('',(0.270500000000000,-3.06652817330196,0.146528173301961));
#166=DIRECTION('',(1.00000000000000,0.00000000000000,0.00000000000000));
#167=VECTOR('',#166,1.00000000000000);
#168=LINE('',#165,#167);
#169=EDGE_CURVE('',#131,#164,#168,.T.);
#170=ORIENTED_EDGE('',*,*,#169,.T.);
#171=CARTESIAN_POINT('',(0.270500000000000,2.93347182669804,0.146528173301961));
#172=VERTEX_POINT('',#171);
#173=CARTESIAN_POINT('',(0.270500000000000,-0.0665281733019593,0.146528173301961));
#174=DIRECTION('',(0.00000000000000,-1.00000000000000,0.00000000000000));
#175=VECTOR('',#174,1.00000000000000);
#176=LINE('',#173,#175);
#177=EDGE_CURVE('',#172,#164,#176,.T.);
#178=ORIENTED_EDGE('',*,*,#177,.F.);
#179=CARTESIAN_POINT('',(0.270500000000000,2.93347182669804,0.146528173301961));
#180=DIRECTION('',(-1.00000000000000,0.00000000000000,0.00000000000000));
#181=VECTOR('',#180,1.00000000000000);
#182=LINE('',#179,#181);
#183=EDGE_CURVE('',#172,#140,#182,.T.);
#184=ORIENTED_EDGE('',*,*,#183,.T.);
#185=ORIENTED_EDGE('',*,*,#145,.F.);
#186=EDGE_LOOP('',(#170,#178,#184,#185));
#187=FACE_OUTER_BOUND('',#186,.T.);
#188=CARTESIAN_POINT('',(4.44089209850063E-16,-0.0665281733019593,0.146528173301961));
#189=DIRECTION('',(0.00000000000000,0.00000000000000,1.00000000000000));
#190=DIRECTION('',(-1.00000000000000,0.00000000000000,0.00000000000000));
#191=AXIS2_PLACEMENT_3D('',#188,#189,#190);
#192=PLANE('',#191);
#193=ADVANCED_FACE('',(#187),#192,.T.);
#194=CARTESIAN_POINT('',(0.285543269141947,-3.06652817330196,0.106129895987153));
#195=VERTEX_POINT('',#194);
#196=CARTESIAN_POINT('',(0.270500000000000,-3.06652817330196,0.123528173301962));
#197=DIRECTION('',(1.36845553156720E-48,1.00000000000000,-6.12323399573676E-17));
#198=DIRECTION('',(-1.00000000000000,7.49879891330929E-33,1.22464679914735E-16));
#199=AXIS2_PLACEMENT_3D('',#196,#197,#198);
#200=CIRCLE('',#199,0.0230000000000005);
#201=EDGE_CURVE('',#164,#195,#200,.T.);
#202=ORIENTED_EDGE('',*,*,#201,.T.);
#203=CARTESIAN_POINT('',(0.285543269141947,2.93347182669804,0.106129895987153));
#204=VERTEX_POINT('',#203);
#205=CARTESIAN_POINT('',(0.285543269141947,-0.0665281733019594,0.106129895987153));
#206=DIRECTION('',(0.00000000000000,-1.00000000000000,0.00000000000000));
#207=VECTOR('',#206,1.00000000000000);
#208=LINE('',#205,#207);
#209=EDGE_CURVE('',#204,#195,#208,.T.);
#210=ORIENTED_EDGE('',*,*,#209,.F.);
#211=CARTESIAN_POINT('',(0.270500000000000,2.93347182669804,0.123528173301962));
#212=DIRECTION('',(-1.36845553156720E-48,-1.00000000000000,6.12323399573676E-17));
#213=DIRECTION('',(-1.00000000000000,7.49879891330929E-33,1.22464679914735E-16));
#214=AXIS2_PLACEMENT_3D('',#211,#212,#213);
#215=CIRCLE('',#214,0.0230000000000005);
#216=EDGE_CURVE('',#204,#172,#215,.T.);
#217=ORIENTED_EDGE('',*,*,#216,.T.);
#218=ORIENTED_EDGE('',*,*,#177,.T.);
#219=EDGE_LOOP('',(#202,#210,#217,#218));
#220=FACE_OUTER_BOUND('',#219,.T.);
#221=CARTESIAN_POINT('',(0.270500000000000,-0.0665281733019594,0.123528173301962));
#222=DIRECTION('',(0.00000000000000,-1.00000000000000,0.00000000000000));
#223=DIRECTION('',(-1.00000000000000,0.00000000000000,1.22464679914735E-16));
#224=AXIS2_PLACEMENT_3D('',#221,#222,#223);
#225=CYLINDRICAL_SURFACE('',#224,0.0230000000000005);
#226=ADVANCED_FACE('',(#220),#225,.T.);
#227=CARTESIAN_POINT('',(0.282128444592898,-3.06652817330196,0.0995090809855004));
#228=VERTEX_POINT('',#227);
#229=CARTESIAN_POINT('',(0.292083820942793,-3.06652817330196,0.0985654275894116));
#230=DIRECTION('',(0.00000000000000,-1.00000000000000,6.12323399573677E-17));
#231=DIRECTION('',(-1.00000000000000,7.49879891330929E-33,1.22464679914735E-16));
#232=AXIS2_PLACEMENT_3D('',#229,#230,#231);
#233=CIRCLE('',#232,0.00999999999999910);
#234=EDGE_CURVE('',#195,#228,#233,.T.);
#235=ORIENTED_EDGE('',*,*,#234,.T.);
#236=CARTESIAN_POINT('',(0.282128444592898,2.93347182669804,0.0995090809855004));
#237=VERTEX_POINT('',#236);
#238=CARTESIAN_POINT('',(0.282128444592898,-0.0665281733019594,0.0995090809855004));
#239=DIRECTION('',(0.00000000000000,1.00000000000000,0.00000000000000));
#240=VECTOR('',#239,1.00000000000000);
#241=LINE('',#238,#240);
#242=EDGE_CURVE('',#228,#237,#241,.T.);
#243=ORIENTED_EDGE('',*,*,#242,.T.);
#244=CARTESIAN_POINT('',(0.292083820942793,2.93347182669804,0.0985654275894116));
#245=DIRECTION('',(0.00000000000000,1.00000000000000,-6.12323399573677E-17));
#246=DIRECTION('',(-1.00000000000000,7.49879891330929E-33,1.22464679914735E-16));
#247=AXIS2_PLACEMENT_3D('',#244,#245,#246);
#248=CIRCLE('',#247,0.00999999999999910);
#249=EDGE_CURVE('',#237,#204,#248,.T.);
#250=ORIENTED_EDGE('',*,*,#249,.T.);
#251=ORIENTED_EDGE('',*,*,#209,.T.);
#252=EDGE_LOOP('',(#235,#243,#250,#251));
#253=FACE_OUTER_BOUND('',#252,.T.);
#254=CARTESIAN_POINT('',(0.292083820942793,-0.0665281733019594,0.0985654275894116));
#255=DIRECTION('',(0.00000000000000,-1.00000000000000,0.00000000000000));
#256=DIRECTION('',(-1.00000000000000,0.00000000000000,1.22464679914735E-16));
#257=AXIS2_PLACEMENT_3D('',#254,#255,#256);
#258=CYLINDRICAL_SURFACE('',#257,0.00999999999999910);
#259=ADVANCED_FACE('',(#253),#258,.F.);
#260=CARTESIAN_POINT('',(0.263278060702967,-3.06652817330196,-0.0993591334902177));
#261=VERTEX_POINT('',#260);
#262=CARTESIAN_POINT('',(0.282128444592898,-3.06652817330196,0.0995090809855004));
#263=DIRECTION('',(-0.0943653396089471,0.00000000000000,-0.995537634989501));
#264=VECTOR('',#263,1.00000000000000);
#265=LINE('',#262,#264);
#266=EDGE_CURVE('',#228,#261,#265,.T.);
#267=ORIENTED_EDGE('',*,*,#266,.T.);
#268=CARTESIAN_POINT('',(0.263278060702967,2.93347182669804,-0.0993591334902177));
#269=VERTEX_POINT('',#268);
#270=CARTESIAN_POINT('',(0.263278060702967,-0.0665281733019594,-0.0993591334902177));
#271=DIRECTION('',(0.00000000000000,-1.00000000000000,0.00000000000000));
#272=VECTOR('',#271,1.00000000000000);
#273=LINE('',#270,#272);
#274=EDGE_CURVE('',#269,#261,#273,.T.);
#275=ORIENTED_EDGE('',*,*,#274,.F.);
#276=CARTESIAN_POINT('',(0.282128444592898,2.93347182669804,0.0995090809855004));
#277=DIRECTION('',(0.0943653396089471,0.00000000000000,0.995537634989501));
#278=VECTOR('',#277,1.00000000000000);
#279=LINE('',#276,#278);
#280=EDGE_CURVE('',#269,#237,#279,.T.);
#281=ORIENTED_EDGE('',*,*,#280,.T.);
#282=ORIENTED_EDGE('',*,*,#242,.F.);
#283=EDGE_LOOP('',(#267,#275,#281,#282));
#284=FACE_OUTER_BOUND('',#283,.T.);
#285=CARTESIAN_POINT('',(0.272703252647932,-0.0665281733019594,7.49737476413159E-05));
#286=DIRECTION('',(0.995537634989501,0.00000000000000,-0.0943653396089471));
#287=DIRECTION('',(0.0943653396089471,-0.00000000000000,0.995537634989501));
#288=AXIS2_PLACEMENT_3D('',#285,#286,#287);
#289=PLANE('',#288);
#290=ADVANCED_FACE('',(#284),#289,.T.);
#291=CARTESIAN_POINT('',(0.223456555303387,-3.06652817330196,-0.0955845199058585));
#292=VERTEX_POINT('',#291);
#293=CARTESIAN_POINT('',(0.243367308003177,-3.06652817330196,-0.0974718266980377));
#294=DIRECTION('',(1.36845553156720E-48,1.00000000000000,-6.12323399573676E-17));
#295=DIRECTION('',(-1.00000000000000,7.49879891330929E-33,1.22464679914735E-16));
#296=AXIS2_PLACEMENT_3D('',#293,#294,#295);
#297=CIRCLE('',#296,0.0199999999999998);
#298=EDGE_CURVE('',#261,#292,#297,.T.);
#299=ORIENTED_EDGE('',*,*,#298,.T.);
#300=CARTESIAN_POINT('',(0.223456555303387,2.93347182669804,-0.0955845199058585));
#301=VERTEX_POINT('',#300);
#302=CARTESIAN_POINT('',(0.223456555303387,-0.0665281733019594,-0.0955845199058585));
#303=DIRECTION('',(0.00000000000000,1.00000000000000,0.00000000000000));
#304=VECTOR('',#303,1.00000000000000);
#305=LINE('',#302,#304);
#306=EDGE_CURVE('',#292,#301,#305,.T.);
#307=ORIENTED_EDGE('',*,*,#306,.T.);
#308=CARTESIAN_POINT('',(0.243367308003177,2.93347182669804,-0.0974718266980377));
#309=DIRECTION('',(-1.36845553156720E-48,-1.00000000000000,6.12323399573676E-17));
#310=DIRECTION('',(-1.00000000000000,7.49879891330929E-33,1.22464679914735E-16));
#311=AXIS2_PLACEMENT_3D('',#308,#309,#310);
#312=CIRCLE('',#311,0.0199999999999998);
#313=EDGE_CURVE('',#301,#269,#312,.T.);
#314=ORIENTED_EDGE('',*,*,#313,.T.);
#315=ORIENTED_EDGE('',*,*,#274,.T.);
#316=EDGE_LOOP('',(#299,#307,#314,#315));
#317=FACE_OUTER_BOUND('',#316,.T.);
#318=CARTESIAN_POINT('',(0.243367308003177,-0.0665281733019594,-0.0974718266980377));
#319=DIRECTION('',(0.00000000000000,-1.00000000000000,0.00000000000000));
#320=DIRECTION('',(0.0943653396089827,0.00000000000000,0.995537634989497));
#321=AXIS2_PLACEMENT_3D('',#318,#319,#320);
#322=CYLINDRICAL_SURFACE('',#321,0.0199999999999998);
#323=ADVANCED_FACE('',(#317),#322,.T.);
#324=CARTESIAN_POINT('',(0.241577147363918,-3.06652817330196,0.0955845199058718));
#325=VERTEX_POINT('',#324);
#326=CARTESIAN_POINT('',(0.241577147363918,-3.06652817330196,0.0955845199058718));
#327=DIRECTION('',(0.0943653396089484,0.00000000000000,0.995537634989500));
#328=VECTOR('',#327,1.00000000000000);
#329=LINE('',#326,#328);
#330=EDGE_CURVE('',#292,#325,#329,.T.);
#331=ORIENTED_EDGE('',*,*,#330,.T.);
#332=CARTESIAN_POINT('',(0.241577147363918,2.93347182669804,0.0955845199058718));
#333=VERTEX_POINT('',#332);
#334=CARTESIAN_POINT('',(0.241577147363918,-0.0665281733019594,0.0955845199058718));
#335=DIRECTION('',(0.00000000000000,-1.00000000000000,0.00000000000000));
#336=VECTOR('',#335,1.00000000000000);
#337=LINE('',#334,#336);
#338=EDGE_CURVE('',#333,#325,#337,.T.);
#339=ORIENTED_EDGE('',*,*,#338,.F.);
#340=CARTESIAN_POINT('',(0.241577147363918,2.93347182669804,0.0955845199058718));
#341=DIRECTION('',(-0.0943653396089484,0.00000000000000,-0.995537634989500));
#342=VECTOR('',#341,1.00000000000000);
#343=LINE('',#340,#342);
#344=EDGE_CURVE('',#333,#301,#343,.T.);
#345=ORIENTED_EDGE('',*,*,#344,.T.);
#346=ORIENTED_EDGE('',*,*,#306,.F.);
#347=EDGE_LOOP('',(#331,#339,#345,#346));
#348=FACE_OUTER_BOUND('',#347,.T.);
#349=CARTESIAN_POINT('',(0.232516851333653,-0.0665281733019594,6.67521593555875E-15));
#350=DIRECTION('',(-0.995537634989501,0.00000000000000,0.0943653396089485));
#351=DIRECTION('',(-0.0943653396089485,0.00000000000000,-0.995537634989501));
#352=AXIS2_PLACEMENT_3D('',#349,#350,#351);
#353=PLANE('',#352);
#354=ADVANCED_FACE('',(#348),#353,.T.);
#355=CARTESIAN_POINT('',(0.231621771014023,-3.06652817330196,0.106528173301960));
#356=VERTEX_POINT('',#355);
#357=CARTESIAN_POINT('',(0.231621771014022,-3.06652817330196,0.0965281733019614));
#358=DIRECTION('',(-7.70371977754894E-34,-1.00000000000000,6.12323399573677E-17));
#359=DIRECTION('',(0.0839800909401082,6.10160325922738E-17,0.996467432646793));
#360=AXIS2_PLACEMENT_3D('',#357,#358,#359);
#361=CIRCLE('',#360,0.00999999999999973);
#362=EDGE_CURVE('',#325,#356,#361,.T.);
#363=ORIENTED_EDGE('',*,*,#362,.T.);
#364=CARTESIAN_POINT('',(0.231621771014023,2.93347182669804,0.106528173301960));
#365=VERTEX_POINT('',#364);
#366=CARTESIAN_POINT('',(0.231621771014023,-0.0665281733019593,0.106528173301960));
#367=DIRECTION('',(0.00000000000000,1.00000000000000,0.00000000000000));
#368=VECTOR('',#367,1.00000000000000);
#369=LINE('',#366,#368);
#370=EDGE_CURVE('',#356,#365,#369,.T.);
#371=ORIENTED_EDGE('',*,*,#370,.T.);
#372=CARTESIAN_POINT('',(0.231621771014022,2.93347182669804,0.0965281733019614));
#373=DIRECTION('',(7.70371977754894E-34,1.00000000000000,-6.12323399573677E-17));
#374=DIRECTION('',(0.0839800909401082,6.10160325922738E-17,0.996467432646793));
#375=AXIS2_PLACEMENT_3D('',#372,#373,#374);
#376=CIRCLE('',#375,0.00999999999999973);
#377=EDGE_CURVE('',#365,#333,#376,.T.);
#378=ORIENTED_EDGE('',*,*,#377,.T.);
#379=ORIENTED_EDGE('',*,*,#338,.T.);
#380=EDGE_LOOP('',(#363,#371,#378,#379));
#381=FACE_OUTER_BOUND('',#380,.T.);
#382=CARTESIAN_POINT('',(0.231621771014022,-0.0665281733019594,0.0965281733019614));
#383=DIRECTION('',(0.00000000000000,-1.00000000000000,0.00000000000000));
#384=DIRECTION('',(-0.739717966392947,0.00000000000000,-0.672917030692108));
#385=AXIS2_PLACEMENT_3D('',#382,#383,#384);
#386=CYLINDRICAL_SURFACE('',#385,0.00999999999999973);
#387=ADVANCED_FACE('',(#381),#386,.F.);
#388=CARTESIAN_POINT('',(-0.231621771014024,-3.06652817330196,0.106528173301960));
#389=VERTEX_POINT('',#388);
#390=CARTESIAN_POINT('',(0.231621771014023,-3.06652817330196,0.106528173301960));
#391=DIRECTION('',(-1.00000000000000,0.00000000000000,0.00000000000000));
#392=VECTOR('',#391,1.00000000000000);
#393=LINE('',#390,#392);
#394=EDGE_CURVE('',#356,#389,#393,.T.);
#395=ORIENTED_EDGE('',*,*,#394,.T.);
#396=CARTESIAN_POINT('',(-0.231621771014024,2.93347182669804,0.106528173301960));
#397=VERTEX_POINT('',#396);
#398=CARTESIAN_POINT('',(-0.231621771014024,-0.0665281733019594,0.106528173301960));
#399=DIRECTION('',(0.00000000000000,-1.00000000000000,0.00000000000000));
#400=VECTOR('',#399,1.00000000000000);
#401=LINE('',#398,#400);
#402=EDGE_CURVE('',#397,#389,#401,.T.);
#403=ORIENTED_EDGE('',*,*,#402,.F.);
#404=CARTESIAN_POINT('',(0.231621771014023,2.93347182669804,0.106528173301960));
#405=DIRECTION('',(1.00000000000000,0.00000000000000,0.00000000000000));
#406=VECTOR('',#405,1.00000000000000);
#407=LINE('',#404,#406);
#408=EDGE_CURVE('',#397,#365,#407,.T.);
#409=ORIENTED_EDGE('',*,*,#408,.T.);
#410=ORIENTED_EDGE('',*,*,#370,.F.);
#411=EDGE_LOOP('',(#395,#403,#409,#410));
#412=FACE_OUTER_BOUND('',#411,.T.);
#413=CARTESIAN_POINT('',(-4.44089209850063E-16,-0.0665281733019593,0.106528173301960));
#414=DIRECTION('',(-0.00000000000000,-0.00000000000000,-1.00000000000000));
#415=DIRECTION('',(1.00000000000000,-0.00000000000000,-0.00000000000000));
#416=AXIS2_PLACEMENT_3D('',#413,#414,#415);
#417=PLANE('',#416);
#418=ADVANCED_FACE('',(#412),#417,.T.);
#419=CARTESIAN_POINT('',(-0.241577147363920,-3.06652817330196,0.0955845199058818));
#420=VERTEX_POINT('',#419);
#421=CARTESIAN_POINT('',(-0.231621771014024,-3.06652817330196,0.0965281733019605));
#422=DIRECTION('',(-0.00000000000000,-1.00000000000000,-0.00000000000000));
#423=DIRECTION('',(-1.00000000000000,0.00000000000000,0.00000000000000));
#424=AXIS2_PLACEMENT_3D('',#421,#422,#423);
#425=CIRCLE('',#424,0.00999999999999973);
#426=EDGE_CURVE('',#389,#420,#425,.T.);
#427=ORIENTED_EDGE('',*,*,#426,.T.);
#428=CARTESIAN_POINT('',(-0.241577147363920,2.93347182669804,0.0955845199058818));
#429=VERTEX_POINT('',#428);
#430=CARTESIAN_POINT('',(-0.241577147363920,-0.0665281733019594,0.0955845199058818));
#431=DIRECTION('',(0.00000000000000,1.00000000000000,0.00000000000000));
#432=VECTOR('',#431,1.00000000000000);
#433=LINE('',#430,#432);
#434=EDGE_CURVE('',#420,#429,#433,.T.);
#435=ORIENTED_EDGE('',*,*,#434,.T.);
#436=CARTESIAN_POINT('',(-0.231621771014024,2.93347182669804,0.0965281733019605));
#437=DIRECTION('',(0.00000000000000,1.00000000000000,0.00000000000000));
#438=DIRECTION('',(-1.00000000000000,0.00000000000000,0.00000000000000));
#439=AXIS2_PLACEMENT_3D('',#436,#437,#438);
#440=CIRCLE('',#439,0.00999999999999973);
#441=EDGE_CURVE('',#429,#397,#440,.T.);
#442=ORIENTED_EDGE('',*,*,#441,.T.);
#443=ORIENTED_EDGE('',*,*,#402,.T.);
#444=EDGE_LOOP('',(#427,#435,#442,#443));
#445=FACE_OUTER_BOUND('',#444,.T.);
#446=CARTESIAN_POINT('',(-0.231621771014024,-0.0665281733019594,0.0965281733019605));
#447=DIRECTION('',(0.00000000000000,-1.00000000000000,0.00000000000000));
#448=DIRECTION('',(0.739717966392554,0.00000000000000,-0.672917030692540));
#449=AXIS2_PLACEMENT_3D('',#446,#447,#448);
#450=CYLINDRICAL_SURFACE('',#449,0.00999999999999973);
#451=ADVANCED_FACE('',(#445),#450,.F.);
#452=CARTESIAN_POINT('',(-0.223456555303593,-3.06652817330196,-0.0955845199058816));
#453=DIRECTION('',(0.0943653396078734,0.00000000000000,-0.995537634989602));
#454=VECTOR('',#453,1.00000000000000);
#455=LINE('',#452,#454);
#456=EDGE_CURVE('',#420,#25,#455,.T.);
#457=ORIENTED_EDGE('',*,*,#456,.T.);
#458=ORIENTED_EDGE('',*,*,#56,.F.);
#459=CARTESIAN_POINT('',(-0.223456555303593,2.93347182669804,-0.0955845199058816));
#460=DIRECTION('',(-0.0943653396078734,0.00000000000000,0.995537634989602));
#461=VECTOR('',#460,1.00000000000000);
#462=LINE('',#459,#461);
#463=EDGE_CURVE('',#44,#429,#462,.T.);
#464=ORIENTED_EDGE('',*,*,#463,.T.);
#465=ORIENTED_EDGE('',*,*,#434,.F.);
#466=EDGE_LOOP('',(#457,#458,#464,#465));
#467=FACE_OUTER_BOUND('',#466,.T.);
#468=CARTESIAN_POINT('',(-0.232516851333756,-0.0665281733019594,1.94289029309402E-16));
#469=DIRECTION('',(0.995537634989602,0.00000000000000,0.0943653396078734));
#470=DIRECTION('',(-0.0943653396078734,0.00000000000000,0.995537634989602));
#471=AXIS2_PLACEMENT_3D('',#468,#469,#470);
#472=PLANE('',#471);
#473=ADVANCED_FACE('',(#467),#472,.T.);
#474=ORIENTED_EDGE('',*,*,#33,.F.);
#475=ORIENTED_EDGE('',*,*,#456,.F.);
#476=ORIENTED_EDGE('',*,*,#426,.F.);
#477=ORIENTED_EDGE('',*,*,#394,.F.);
#478=ORIENTED_EDGE('',*,*,#362,.F.);
#479=ORIENTED_EDGE('',*,*,#330,.F.);
#480=ORIENTED_EDGE('',*,*,#298,.F.);
#481=ORIENTED_EDGE('',*,*,#266,.F.);
#482=ORIENTED_EDGE('',*,*,#234,.F.);
#483=ORIENTED_EDGE('',*,*,#201,.F.);
#484=ORIENTED_EDGE('',*,*,#169,.F.);
#485=ORIENTED_EDGE('',*,*,#137,.F.);
#486=ORIENTED_EDGE('',*,*,#104,.F.);
#487=ORIENTED_EDGE('',*,*,#72,.F.);
#488=EDGE_LOOP('',(#474,#475,#476,#477,#478,#479,#480,#481,#482,#483,#484,#485,#486,#487));
#489=FACE_OUTER_BOUND('',#488,.T.);
#490=CARTESIAN_POINT('',(-0.229116069218834,-3.06652817330196,-0.0358776495466725));
#491=DIRECTION('',(0.00000000000000,-1.00000000000000,0.00000000000000));
#492=DIRECTION('',(1.00000000000000,0.00000000000000,0.00000000000000));
#493=AXIS2_PLACEMENT_3D('',#490,#491,#492);
#494=PLANE('',#493);
#495=ADVANCED_FACE('',(#489),#494,.T.);
#496=ORIENTED_EDGE('',*,*,#441,.F.);
#497=ORIENTED_EDGE('',*,*,#463,.F.);
#498=ORIENTED_EDGE('',*,*,#50,.F.);
#499=ORIENTED_EDGE('',*,*,#86,.F.);
#500=ORIENTED_EDGE('',*,*,#119,.F.);
#501=ORIENTED_EDGE('',*,*,#152,.F.);
#502=ORIENTED_EDGE('',*,*,#183,.F.);
#503=ORIENTED_EDGE('',*,*,#216,.F.);
#504=ORIENTED_EDGE('',*,*,#249,.F.);
#505=ORIENTED_EDGE('',*,*,#280,.F.);
#506=ORIENTED_EDGE('',*,*,#313,.F.);
#507=ORIENTED_EDGE('',*,*,#344,.F.);
#508=ORIENTED_EDGE('',*,*,#377,.F.);
#509=ORIENTED_EDGE('',*,*,#408,.F.);
#510=EDGE_LOOP('',(#496,#497,#498,#499,#500,#501,#502,#503,#504,#505,#506,#507,#508,#509));
#511=FACE_OUTER_BOUND('',#510,.T.);
#512=CARTESIAN_POINT('',(-0.229116069218834,2.93347182669804,-0.0358776495466725));
#513=DIRECTION('',(0.00000000000000,-1.00000000000000,0.00000000000000));
#514=DIRECTION('',(1.00000000000000,0.00000000000000,0.00000000000000));
#515=AXIS2_PLACEMENT_3D('',#512,#513,#514);
#516=PLANE('',#515);
#517=ADVANCED_FACE('',(#511),#516,.F.);
#518=CLOSED_SHELL('',(#65,#96,#129,#162,#193,#226,#259,#290,#323,#354,#387,#418,#451,#473,#495,#517));
#519=MANIFOLD_SOLID_BREP('',#518);
#520=COLOUR_RGB('',1.00000000000000,0.00000000000000,0.00000000000000);
#521=FILL_AREA_STYLE_COLOUR('',#520);
#522=FILL_AREA_STYLE('',(#521));
#523=SURFACE_STYLE_FILL_AREA(#522);
#524=SURFACE_SIDE_STYLE('',(#523));
#525=SURFACE_STYLE_USAGE(.BOTH.,#524);
#526=PRESENTATION_STYLE_ASSIGNMENT((#525));
#527=STYLED_ITEM('',(#526),#519);
#528=ADVANCED_BREP_SHAPE_REPRESENTATION('',(#519,#23),#18);
#529=PRODUCT('','','',(#2));
#530=PRODUCT_DEFINITION_FORMATION_WITH_SPECIFIED_SOURCE('','',#529,.NOT_KNOWN.);
#531=PRODUCT_CATEGORY('part','');
#532=PRODUCT_RELATED_PRODUCT_CATEGORY('detail','',(#529));
#533=PRODUCT_CATEGORY_RELATIONSHIP('','',#531,#532);
#534=PRODUCT_DEFINITION('','',#530,#1);
#535=PRODUCT_DEFINITION_SHAPE('NONE','NONE',#534);
#536=SHAPE_DEFINITION_REPRESENTATION(#535,#528);
#537=PRESENTATION_LAYER_ASSIGNMENT('1','Unnamed [1]',(#519));
ENDSEC;
END-ISO-10303-21;
