ISO-10303-21;
HEADER;
FILE_DESCRIPTION((''),'2;1');
FILE_NAME('C:/Program Files/Kubotek/KeyCreatorPro.2021.SP0/STEP/SG2090.STP', '2021-02-24T20:56:50',(''), (''), 'KCM Version 2.0.6974.6974', 'KeyCreator Pro', '');
FILE_SCHEMA(('AUTOMOTIVE_DESIGN'));
ENDSEC;
DATA;
#1=PRODUCT_DEFINITION_CONTEXT('',#4,'design');
#2=PRODUCT_CONTEXT('',#4,'mechanical');
#3=APPLICATION_PROTOCOL_DEFINITION('International Standard','automotive_design',2001,#4);
#4=APPLICATION_CONTEXT('automotive design');
#10=DIMENSIONAL_EXPONENTS(1.0,0.0,0.0,0.0,0.0,0.0,0.0);
#11=DIMENSIONAL_EXPONENTS(0.0,0.0,0.0,0.0,0.0,0.0,0.0);
#12=(NAMED_UNIT(#10)LENGTH_UNIT()SI_UNIT(.MILLI.,.METRE.));
#13=(NAMED_UNIT(#11)PLANE_ANGLE_UNIT()SI_UNIT($,.RADIAN.));
#14=(NAMED_UNIT(#11)SOLID_ANGLE_UNIT()SI_UNIT($,.STERADIAN.));
#15=LENGTH_MEASURE_WITH_UNIT(LENGTH_MEASURE(25.4),#12);
#16= (CONVERSION_BASED_UNIT('INCH',#15)LENGTH_UNIT()NAMED_UNIT(#10));
#17=UNCERTAINTY_MEASURE_WITH_UNIT(LENGTH_MEASURE(1.0E-006),#16,'','');
#18=(GEOMETRIC_REPRESENTATION_CONTEXT(3)GLOBAL_UNCERTAINTY_ASSIGNED_CONTEXT((#17))GLOBAL_UNIT_ASSIGNED_CONTEXT((#16,#13,#14))REPRESENTATION_CONTEXT('NONE','WORKSPACE'));
#20=CARTESIAN_POINT('',(0.00000000000000,0.00000000000000,0.00000000000000));
#21=DIRECTION('',(0.00000000000000,0.00000000000000,1.00000000000000));
#22=DIRECTION('',(1.00000000000000,0.00000000000000,0.00000000000000));
#23=AXIS2_PLACEMENT_3D('',#20,#21,#22);
#24=CARTESIAN_POINT('',(3.41577021360397,9.80472606658935,0.0649999999999982));
#25=VERTEX_POINT('',#24);
#26=CARTESIAN_POINT('',(3.41577021360397,9.80472606658935,-0.0649999999999999));
#27=VERTEX_POINT('',#26);
#28=CARTESIAN_POINT('',(3.41577021360397,9.80472606658935,-0.0649999999999999));
#29=DIRECTION('',(-0.00000000000000,-0.00000000000000,-1.00000000000000));
#30=VECTOR('',#29,1.00000000000000);
#31=LINE('',#28,#30);
#32=EDGE_CURVE('',#25,#27,#31,.T.);
#33=ORIENTED_EDGE('',*,*,#32,.T.);
#34=CARTESIAN_POINT('',(3.41577021360397,3.80472606658935,-0.0649999999999999));
#35=VERTEX_POINT('',#34);
#36=CARTESIAN_POINT('',(3.41577021360397,3.80472606658935,-0.0649999999999999));
#37=DIRECTION('',(0.00000000000000,1.00000000000000,0.00000000000000));
#38=VECTOR('',#37,1.00000000000000);
#39=LINE('',#36,#38);
#40=EDGE_CURVE('',#35,#27,#39,.T.);
#41=ORIENTED_EDGE('',*,*,#40,.F.);
#42=CARTESIAN_POINT('',(3.41577021360397,3.80472606658935,0.0649999999999982));
#43=VERTEX_POINT('',#42);
#44=CARTESIAN_POINT('',(3.41577021360397,3.80472606658935,-0.0649999999999999));
#45=DIRECTION('',(0.00000000000000,0.00000000000000,1.00000000000000));
#46=VECTOR('',#45,1.00000000000000);
#47=LINE('',#44,#46);
#48=EDGE_CURVE('',#35,#43,#47,.T.);
#49=ORIENTED_EDGE('',*,*,#48,.T.);
#50=CARTESIAN_POINT('',(3.41577021360397,3.80472606658935,0.0649999999999982));
#51=DIRECTION('',(0.00000000000000,1.00000000000000,0.00000000000000));
#52=VECTOR('',#51,1.00000000000000);
#53=LINE('',#50,#52);
#54=EDGE_CURVE('',#43,#25,#53,.T.);
#55=ORIENTED_EDGE('',*,*,#54,.T.);
#56=EDGE_LOOP('',(#33,#41,#49,#55));
#57=FACE_OUTER_BOUND('',#56,.T.);
#58=CARTESIAN_POINT('',(3.41577021360397,3.80472606658935,-8.88178419700125E-16));
#59=DIRECTION('',(-1.00000000000000,0.00000000000000,0.00000000000000));
#60=DIRECTION('',(0.00000000000000,0.00000000000000,1.00000000000000));
#61=AXIS2_PLACEMENT_3D('',#58,#59,#60);
#62=PLANE('',#61);
#63=ADVANCED_FACE('',(#57),#62,.T.);
#64=CARTESIAN_POINT('',(2.83077021360397,9.80472606658935,-0.0649999999999999));
#65=VERTEX_POINT('',#64);
#66=CARTESIAN_POINT('',(2.83077021360397,9.80472606658935,-0.0649999999999999));
#67=DIRECTION('',(-1.00000000000000,-0.00000000000000,-0.00000000000000));
#68=VECTOR('',#67,1.00000000000000);
#69=LINE('',#66,#68);
#70=EDGE_CURVE('',#27,#65,#69,.T.);
#71=ORIENTED_EDGE('',*,*,#70,.T.);
#72=CARTESIAN_POINT('',(2.83077021360397,3.80472606658935,-0.0649999999999999));
#73=VERTEX_POINT('',#72);
#74=CARTESIAN_POINT('',(2.83077021360397,3.80472606658935,-0.0649999999999999));
#75=DIRECTION('',(0.00000000000000,1.00000000000000,0.00000000000000));
#76=VECTOR('',#75,1.00000000000000);
#77=LINE('',#74,#76);
#78=EDGE_CURVE('',#73,#65,#77,.T.);
#79=ORIENTED_EDGE('',*,*,#78,.F.);
#80=CARTESIAN_POINT('',(2.83077021360397,3.80472606658935,-0.0649999999999999));
#81=DIRECTION('',(1.00000000000000,0.00000000000000,0.00000000000000));
#82=VECTOR('',#81,1.00000000000000);
#83=LINE('',#80,#82);
#84=EDGE_CURVE('',#73,#35,#83,.T.);
#85=ORIENTED_EDGE('',*,*,#84,.T.);
#86=ORIENTED_EDGE('',*,*,#40,.T.);
#87=EDGE_LOOP('',(#71,#79,#85,#86));
#88=FACE_OUTER_BOUND('',#87,.T.);
#89=CARTESIAN_POINT('',(3.12327021360397,3.80472606658935,-0.0649999999999999));
#90=DIRECTION('',(0.00000000000000,0.00000000000000,1.00000000000000));
#91=DIRECTION('',(1.00000000000000,0.00000000000000,0.00000000000000));
#92=AXIS2_PLACEMENT_3D('',#89,#90,#91);
#93=PLANE('',#92);
#94=ADVANCED_FACE('',(#88),#93,.T.);
#95=CARTESIAN_POINT('',(2.83077021360397,9.80472606658935,-0.105000000000000));
#96=VERTEX_POINT('',#95);
#97=CARTESIAN_POINT('',(2.83077021360397,9.80472606658935,-0.0850000000000000));
#98=DIRECTION('',(0.00000000000000,-1.00000000000000,6.12323399573677E-17));
#99=DIRECTION('',(1.00000000000000,0.00000000000000,0.00000000000000));
#100=AXIS2_PLACEMENT_3D('',#97,#98,#99);
#101=CIRCLE('',#100,0.0199999999999998);
#102=EDGE_CURVE('',#65,#96,#101,.T.);
#103=ORIENTED_EDGE('',*,*,#102,.T.);
#104=CARTESIAN_POINT('',(2.83077021360397,3.80472606658935,-0.105000000000000));
#105=VERTEX_POINT('',#104);
#106=CARTESIAN_POINT('',(2.83077021360397,3.80472606658935,-0.105000000000000));
#107=DIRECTION('',(0.00000000000000,1.00000000000000,0.00000000000000));
#108=VECTOR('',#107,1.00000000000000);
#109=LINE('',#106,#108);
#110=EDGE_CURVE('',#105,#96,#109,.T.);
#111=ORIENTED_EDGE('',*,*,#110,.F.);
#112=CARTESIAN_POINT('',(2.83077021360397,3.80472606658935,-0.0850000000000000));
#113=DIRECTION('',(0.00000000000000,-1.00000000000000,6.12323399573677E-17));
#114=DIRECTION('',(1.00000000000000,0.00000000000000,0.00000000000000));
#115=AXIS2_PLACEMENT_3D('',#112,#113,#114);
#116=CIRCLE('',#115,0.0199999999999998);
#117=EDGE_CURVE('',#73,#105,#116,.T.);
#118=ORIENTED_EDGE('',*,*,#117,.F.);
#119=ORIENTED_EDGE('',*,*,#78,.T.);
#120=EDGE_LOOP('',(#103,#111,#118,#119));
#121=FACE_OUTER_BOUND('',#120,.T.);
#122=CARTESIAN_POINT('',(2.83077021360397,3.80472606658935,-0.0850000000000000));
#123=DIRECTION('',(0.00000000000000,1.00000000000000,0.00000000000000));
#124=DIRECTION('',(1.00000000000000,-0.00000000000000,0.00000000000000));
#125=AXIS2_PLACEMENT_3D('',#122,#123,#124);
#126=CYLINDRICAL_SURFACE('',#125,0.0199999999999998);
#127=ADVANCED_FACE('',(#121),#126,.T.);
#128=CARTESIAN_POINT('',(4.04077021360397,9.80472606658935,-0.105000000000000));
#129=VERTEX_POINT('',#128);
#130=CARTESIAN_POINT('',(2.83077021360397,9.80472606658935,-0.105000000000000));
#131=DIRECTION('',(1.00000000000000,0.00000000000000,0.00000000000000));
#132=VECTOR('',#131,1.00000000000000);
#133=LINE('',#130,#132);
#134=EDGE_CURVE('',#96,#129,#133,.T.);
#135=ORIENTED_EDGE('',*,*,#134,.T.);
#136=CARTESIAN_POINT('',(4.04077021360397,3.80472606658935,-0.105000000000000));
#137=VERTEX_POINT('',#136);
#138=CARTESIAN_POINT('',(4.04077021360397,3.80472606658935,-0.105000000000000));
#139=DIRECTION('',(0.00000000000000,1.00000000000000,0.00000000000000));
#140=VECTOR('',#139,1.00000000000000);
#141=LINE('',#138,#140);
#142=EDGE_CURVE('',#137,#129,#141,.T.);
#143=ORIENTED_EDGE('',*,*,#142,.F.);
#144=CARTESIAN_POINT('',(2.83077021360397,3.80472606658935,-0.105000000000000));
#145=DIRECTION('',(1.00000000000000,0.00000000000000,0.00000000000000));
#146=VECTOR('',#145,1.00000000000000);
#147=LINE('',#144,#146);
#148=EDGE_CURVE('',#105,#137,#147,.T.);
#149=ORIENTED_EDGE('',*,*,#148,.F.);
#150=ORIENTED_EDGE('',*,*,#110,.T.);
#151=EDGE_LOOP('',(#135,#143,#149,#150));
#152=FACE_OUTER_BOUND('',#151,.T.);
#153=CARTESIAN_POINT('',(3.43577021360397,3.80472606658935,-0.105000000000000));
#154=DIRECTION('',(0.00000000000000,0.00000000000000,-1.00000000000000));
#155=DIRECTION('',(-1.00000000000000,-0.00000000000000,-0.00000000000000));
#156=AXIS2_PLACEMENT_3D('',#153,#154,#155);
#157=PLANE('',#156);
#158=ADVANCED_FACE('',(#152),#157,.T.);
#159=CARTESIAN_POINT('',(4.04077021360397,9.80472606658935,-0.0649999999999999));
#160=VERTEX_POINT('',#159);
#161=CARTESIAN_POINT('',(4.04077021360397,9.80472606658935,-0.0850000000000009));
#162=DIRECTION('',(0.00000000000000,-1.00000000000000,6.12323399573677E-17));
#163=DIRECTION('',(1.00000000000000,0.00000000000000,0.00000000000000));
#164=AXIS2_PLACEMENT_3D('',#161,#162,#163);
#165=CIRCLE('',#164,0.0199999999999996);
#166=EDGE_CURVE('',#129,#160,#165,.T.);
#167=ORIENTED_EDGE('',*,*,#166,.T.);
#168=CARTESIAN_POINT('',(4.04077021360397,3.80472606658935,-0.0649999999999999));
#169=VERTEX_POINT('',#168);
#170=CARTESIAN_POINT('',(4.04077021360397,3.80472606658935,-0.0649999999999999));
#171=DIRECTION('',(0.00000000000000,1.00000000000000,0.00000000000000));
#172=VECTOR('',#171,1.00000000000000);
#173=LINE('',#170,#172);
#174=EDGE_CURVE('',#169,#160,#173,.T.);
#175=ORIENTED_EDGE('',*,*,#174,.F.);
#176=CARTESIAN_POINT('',(4.04077021360397,3.80472606658935,-0.0850000000000009));
#177=DIRECTION('',(0.00000000000000,-1.00000000000000,6.12323399573677E-17));
#178=DIRECTION('',(1.00000000000000,0.00000000000000,0.00000000000000));
#179=AXIS2_PLACEMENT_3D('',#176,#177,#178);
#180=CIRCLE('',#179,0.0199999999999996);
#181=EDGE_CURVE('',#137,#169,#180,.T.);
#182=ORIENTED_EDGE('',*,*,#181,.F.);
#183=ORIENTED_EDGE('',*,*,#142,.T.);
#184=EDGE_LOOP('',(#167,#175,#182,#183));
#185=FACE_OUTER_BOUND('',#184,.T.);
#186=CARTESIAN_POINT('',(4.04077021360397,3.80472606658935,-0.0850000000000009));
#187=DIRECTION('',(0.00000000000000,1.00000000000000,0.00000000000000));
#188=DIRECTION('',(-1.00000000000000,0.00000000000000,0.00000000000000));
#189=AXIS2_PLACEMENT_3D('',#186,#187,#188);
#190=CYLINDRICAL_SURFACE('',#189,0.0199999999999996);
#191=ADVANCED_FACE('',(#185),#190,.T.);
#192=CARTESIAN_POINT('',(3.45577021360397,9.80472606658935,-0.0649999999999999));
#193=VERTEX_POINT('',#192);
#194=CARTESIAN_POINT('',(3.45577021360397,9.80472606658935,-0.0649999999999999));
#195=DIRECTION('',(-1.00000000000000,-0.00000000000000,-0.00000000000000));
#196=VECTOR('',#195,1.00000000000000);
#197=LINE('',#194,#196);
#198=EDGE_CURVE('',#160,#193,#197,.T.);
#199=ORIENTED_EDGE('',*,*,#198,.T.);
#200=CARTESIAN_POINT('',(3.45577021360397,3.80472606658935,-0.0649999999999999));
#201=VERTEX_POINT('',#200);
#202=CARTESIAN_POINT('',(3.45577021360397,3.80472606658935,-0.0649999999999999));
#203=DIRECTION('',(0.00000000000000,1.00000000000000,0.00000000000000));
#204=VECTOR('',#203,1.00000000000000);
#205=LINE('',#202,#204);
#206=EDGE_CURVE('',#201,#193,#205,.T.);
#207=ORIENTED_EDGE('',*,*,#206,.F.);
#208=CARTESIAN_POINT('',(3.45577021360397,3.80472606658935,-0.0649999999999999));
#209=DIRECTION('',(1.00000000000000,0.00000000000000,0.00000000000000));
#210=VECTOR('',#209,1.00000000000000);
#211=LINE('',#208,#210);
#212=EDGE_CURVE('',#201,#169,#211,.T.);
#213=ORIENTED_EDGE('',*,*,#212,.T.);
#214=ORIENTED_EDGE('',*,*,#174,.T.);
#215=EDGE_LOOP('',(#199,#207,#213,#214));
#216=FACE_OUTER_BOUND('',#215,.T.);
#217=CARTESIAN_POINT('',(3.74827021360397,3.80472606658935,-0.0649999999999999));
#218=DIRECTION('',(0.00000000000000,0.00000000000000,1.00000000000000));
#219=DIRECTION('',(1.00000000000000,0.00000000000000,0.00000000000000));
#220=AXIS2_PLACEMENT_3D('',#217,#218,#219);
#221=PLANE('',#220);
#222=ADVANCED_FACE('',(#216),#221,.T.);
#223=CARTESIAN_POINT('',(3.45577021360397,9.80472606658935,0.0649999999999999));
#224=VERTEX_POINT('',#223);
#225=CARTESIAN_POINT('',(3.45577021360397,9.80472606658935,-0.0649999999999999));
#226=DIRECTION('',(0.00000000000000,0.00000000000000,1.00000000000000));
#227=VECTOR('',#226,1.00000000000000);
#228=LINE('',#225,#227);
#229=EDGE_CURVE('',#193,#224,#228,.T.);
#230=ORIENTED_EDGE('',*,*,#229,.T.);
#231=CARTESIAN_POINT('',(3.45577021360397,3.80472606658935,0.0649999999999999));
#232=VERTEX_POINT('',#231);
#233=CARTESIAN_POINT('',(3.45577021360397,3.80472606658935,0.0649999999999999));
#234=DIRECTION('',(0.00000000000000,1.00000000000000,0.00000000000000));
#235=VECTOR('',#234,1.00000000000000);
#236=LINE('',#233,#235);
#237=EDGE_CURVE('',#232,#224,#236,.T.);
#238=ORIENTED_EDGE('',*,*,#237,.F.);
#239=CARTESIAN_POINT('',(3.45577021360397,3.80472606658935,-0.0649999999999999));
#240=DIRECTION('',(0.00000000000000,0.00000000000000,1.00000000000000));
#241=VECTOR('',#240,1.00000000000000);
#242=LINE('',#239,#241);
#243=EDGE_CURVE('',#201,#232,#242,.T.);
#244=ORIENTED_EDGE('',*,*,#243,.F.);
#245=ORIENTED_EDGE('',*,*,#206,.T.);
#246=EDGE_LOOP('',(#230,#238,#244,#245));
#247=FACE_OUTER_BOUND('',#246,.T.);
#248=CARTESIAN_POINT('',(3.45577021360397,3.80472606658935,0.00000000000000));
#249=DIRECTION('',(1.00000000000000,0.00000000000000,0.00000000000000));
#250=DIRECTION('',(-0.00000000000000,-0.00000000000000,-1.00000000000000));
#251=AXIS2_PLACEMENT_3D('',#248,#249,#250);
#252=PLANE('',#251);
#253=ADVANCED_FACE('',(#247),#252,.T.);
#254=CARTESIAN_POINT('',(3.91854260205980,9.80472606658935,0.0551608513585542));
#255=VERTEX_POINT('',#254);
#256=CARTESIAN_POINT('',(3.91854260205980,9.80472606658935,0.0551608513585542));
#257=DIRECTION('',(0.999774054882665,0.00000000000000,-0.0212565092024472));
#258=VECTOR('',#257,1.00000000000000);
#259=LINE('',#256,#258);
#260=EDGE_CURVE('',#224,#255,#259,.T.);
#261=ORIENTED_EDGE('',*,*,#260,.T.);
#262=CARTESIAN_POINT('',(3.91854260205980,3.80472606658935,0.0551608513585542));
#263=VERTEX_POINT('',#262);
#264=CARTESIAN_POINT('',(3.91854260205980,3.80472606658935,0.0551608513585542));
#265=DIRECTION('',(0.00000000000000,1.00000000000000,0.00000000000000));
#266=VECTOR('',#265,1.00000000000000);
#267=LINE('',#264,#266);
#268=EDGE_CURVE('',#263,#255,#267,.T.);
#269=ORIENTED_EDGE('',*,*,#268,.F.);
#270=CARTESIAN_POINT('',(3.91854260205980,3.80472606658935,0.0551608513585542));
#271=DIRECTION('',(-0.999774054882665,0.00000000000000,0.0212565092024472));
#272=VECTOR('',#271,1.00000000000000);
#273=LINE('',#270,#272);
#274=EDGE_CURVE('',#263,#232,#273,.T.);
#275=ORIENTED_EDGE('',*,*,#274,.T.);
#276=ORIENTED_EDGE('',*,*,#237,.T.);
#277=EDGE_LOOP('',(#261,#269,#275,#276));
#278=FACE_OUTER_BOUND('',#277,.T.);
#279=CARTESIAN_POINT('',(3.68715640783189,3.80472606658935,0.0600804256792762));
#280=DIRECTION('',(-0.0212565092024472,0.00000000000000,-0.999774054882665));
#281=DIRECTION('',(-0.999774054882665,0.00000000000000,0.0212565092024472));
#282=AXIS2_PLACEMENT_3D('',#279,#280,#281);
#283=PLANE('',#282);
#284=ADVANCED_FACE('',(#278),#283,.T.);
#285=CARTESIAN_POINT('',(3.91939286242790,9.80472606658935,0.0951518135538612));
#286=VERTEX_POINT('',#285);
#287=CARTESIAN_POINT('',(3.91896773224385,9.80472606658935,0.0751563324562090));
#288=DIRECTION('',(0.00000000000000,-1.00000000000000,6.12323399573677E-17));
#289=DIRECTION('',(1.00000000000000,0.00000000000000,0.00000000000000));
#290=AXIS2_PLACEMENT_3D('',#287,#288,#289);
#291=CIRCLE('',#290,0.0199999999999995);
#292=EDGE_CURVE('',#255,#286,#291,.T.);
#293=ORIENTED_EDGE('',*,*,#292,.T.);
#294=CARTESIAN_POINT('',(3.91939286242790,3.80472606658935,0.0951518135538612));
#295=VERTEX_POINT('',#294);
#296=CARTESIAN_POINT('',(3.91939286242790,3.80472606658935,0.0951518135538612));
#297=DIRECTION('',(0.00000000000000,1.00000000000000,0.00000000000000));
#298=VECTOR('',#297,1.00000000000000);
#299=LINE('',#296,#298);
#300=EDGE_CURVE('',#295,#286,#299,.T.);
#301=ORIENTED_EDGE('',*,*,#300,.F.);
#302=CARTESIAN_POINT('',(3.91896773224385,3.80472606658935,0.0751563324562090));
#303=DIRECTION('',(0.00000000000000,-1.00000000000000,6.12323399573677E-17));
#304=DIRECTION('',(1.00000000000000,0.00000000000000,0.00000000000000));
#305=AXIS2_PLACEMENT_3D('',#302,#303,#304);
#306=CIRCLE('',#305,0.0199999999999995);
#307=EDGE_CURVE('',#263,#295,#306,.T.);
#308=ORIENTED_EDGE('',*,*,#307,.F.);
#309=ORIENTED_EDGE('',*,*,#268,.T.);
#310=EDGE_LOOP('',(#293,#301,#308,#309));
#311=FACE_OUTER_BOUND('',#310,.T.);
#312=CARTESIAN_POINT('',(3.91896773224385,3.80472606658935,0.0751563324562090));
#313=DIRECTION('',(0.00000000000000,1.00000000000000,0.00000000000000));
#314=DIRECTION('',(-0.999774054882665,0.00000000000000,0.0212565092024505));
#315=AXIS2_PLACEMENT_3D('',#312,#313,#314);
#316=CYLINDRICAL_SURFACE('',#315,0.0199999999999995);
#317=ADVANCED_FACE('',(#311),#316,.T.);
#318=CARTESIAN_POINT('',(3.43943723777603,9.80472606658935,0.105356300360007));
#319=VERTEX_POINT('',#318);
#320=CARTESIAN_POINT('',(3.91939286242790,9.80472606658935,0.0951518135538612));
#321=DIRECTION('',(-0.999774054882665,0.00000000000000,0.0212565092024421));
#322=VECTOR('',#321,1.00000000000000);
#323=LINE('',#320,#322);
#324=EDGE_CURVE('',#286,#319,#323,.T.);
#325=ORIENTED_EDGE('',*,*,#324,.T.);
#326=CARTESIAN_POINT('',(3.43943723777603,3.80472606658935,0.105356300360007));
#327=VERTEX_POINT('',#326);
#328=CARTESIAN_POINT('',(3.43943723777603,3.80472606658935,0.105356300360007));
#329=DIRECTION('',(0.00000000000000,1.00000000000000,0.00000000000000));
#330=VECTOR('',#329,1.00000000000000);
#331=LINE('',#328,#330);
#332=EDGE_CURVE('',#327,#319,#331,.T.);
#333=ORIENTED_EDGE('',*,*,#332,.F.);
#334=CARTESIAN_POINT('',(3.91939286242790,3.80472606658935,0.0951518135538612));
#335=DIRECTION('',(-0.999774054882665,0.00000000000000,0.0212565092024421));
#336=VECTOR('',#335,1.00000000000000);
#337=LINE('',#334,#336);
#338=EDGE_CURVE('',#295,#327,#337,.T.);
#339=ORIENTED_EDGE('',*,*,#338,.F.);
#340=ORIENTED_EDGE('',*,*,#300,.T.);
#341=EDGE_LOOP('',(#325,#333,#339,#340));
#342=FACE_OUTER_BOUND('',#341,.T.);
#343=CARTESIAN_POINT('',(3.67941505010196,3.80472606658935,0.100254056956934));
#344=DIRECTION('',(0.0212565092024421,-0.00000000000000,0.999774054882665));
#345=DIRECTION('',(0.999774054882665,-0.00000000000000,-0.0212565092024421));
#346=AXIS2_PLACEMENT_3D('',#343,#344,#345);
#347=PLANE('',#346);
#348=ADVANCED_FACE('',(#342),#347,.T.);
#349=CARTESIAN_POINT('',(3.43210318943194,9.80472606658935,0.105356300360007));
#350=VERTEX_POINT('',#349);
#351=CARTESIAN_POINT('',(3.43577021360399,9.80472606658935,-0.0671177211699661));
#352=DIRECTION('',(0.00000000000000,-1.00000000000000,6.12323399573676E-17));
#353=DIRECTION('',(1.00000000000000,0.00000000000000,0.00000000000000));
#354=AXIS2_PLACEMENT_3D('',#351,#352,#353);
#355=CIRCLE('',#354,0.172513000000000);
#356=EDGE_CURVE('',#319,#350,#355,.T.);
#357=ORIENTED_EDGE('',*,*,#356,.T.);
#358=CARTESIAN_POINT('',(3.43210318943194,3.80472606658935,0.105356300360007));
#359=VERTEX_POINT('',#358);
#360=CARTESIAN_POINT('',(3.43210318943194,3.80472606658935,0.105356300360007));
#361=DIRECTION('',(0.00000000000000,1.00000000000000,0.00000000000000));
#362=VECTOR('',#361,1.00000000000000);
#363=LINE('',#360,#362);
#364=EDGE_CURVE('',#359,#350,#363,.T.);
#365=ORIENTED_EDGE('',*,*,#364,.F.);
#366=CARTESIAN_POINT('',(3.43577021360399,3.80472606658935,-0.0671177211699661));
#367=DIRECTION('',(0.00000000000000,-1.00000000000000,6.12323399573676E-17));
#368=DIRECTION('',(1.00000000000000,0.00000000000000,0.00000000000000));
#369=AXIS2_PLACEMENT_3D('',#366,#367,#368);
#370=CIRCLE('',#369,0.172513000000000);
#371=EDGE_CURVE('',#327,#359,#370,.T.);
#372=ORIENTED_EDGE('',*,*,#371,.F.);
#373=ORIENTED_EDGE('',*,*,#332,.T.);
#374=EDGE_LOOP('',(#357,#365,#372,#373));
#375=FACE_OUTER_BOUND('',#374,.T.);
#376=CARTESIAN_POINT('',(3.43577021360399,3.80472606658935,-0.0671177211699661));
#377=DIRECTION('',(0.00000000000000,1.00000000000000,0.00000000000000));
#378=DIRECTION('',(1.00000000000000,-0.00000000000000,0.00000000000000));
#379=AXIS2_PLACEMENT_3D('',#376,#377,#378);
#380=CYLINDRICAL_SURFACE('',#379,0.172513000000000);
#381=ADVANCED_FACE('',(#375),#380,.T.);
#382=CARTESIAN_POINT('',(2.95214756478005,9.80472606658935,0.0951518135538612));
#383=VERTEX_POINT('',#382);
#384=CARTESIAN_POINT('',(2.95214756478005,9.80472606658935,0.0951518135538612));
#385=DIRECTION('',(-0.999774054882665,-0.00000000000000,-0.0212565092024429));
#386=VECTOR('',#385,1.00000000000000);
#387=LINE('',#384,#386);
#388=EDGE_CURVE('',#350,#383,#387,.T.);
#389=ORIENTED_EDGE('',*,*,#388,.T.);
#390=CARTESIAN_POINT('',(2.95214756478005,3.80472606658935,0.0951518135538612));
#391=VERTEX_POINT('',#390);
#392=CARTESIAN_POINT('',(2.95214756478005,3.80472606658935,0.0951518135538612));
#393=DIRECTION('',(0.00000000000000,1.00000000000000,0.00000000000000));
#394=VECTOR('',#393,1.00000000000000);
#395=LINE('',#392,#394);
#396=EDGE_CURVE('',#391,#383,#395,.T.);
#397=ORIENTED_EDGE('',*,*,#396,.F.);
#398=CARTESIAN_POINT('',(2.95214756478005,3.80472606658935,0.0951518135538612));
#399=DIRECTION('',(0.999774054882665,0.00000000000000,0.0212565092024429));
#400=VECTOR('',#399,1.00000000000000);
#401=LINE('',#398,#400);
#402=EDGE_CURVE('',#391,#359,#401,.T.);
#403=ORIENTED_EDGE('',*,*,#402,.T.);
#404=ORIENTED_EDGE('',*,*,#364,.T.);
#405=EDGE_LOOP('',(#389,#397,#403,#404));
#406=FACE_OUTER_BOUND('',#405,.T.);
#407=CARTESIAN_POINT('',(3.19212537710600,3.80472606658935,0.100254056956934));
#408=DIRECTION('',(-0.0212565092024429,0.00000000000000,0.999774054882665));
#409=DIRECTION('',(0.999774054882665,0.00000000000000,0.0212565092024429));
#410=AXIS2_PLACEMENT_3D('',#407,#408,#409);
#411=PLANE('',#410);
#412=ADVANCED_FACE('',(#406),#411,.T.);
#413=CARTESIAN_POINT('',(2.95299782514815,9.80472606658935,0.0551608513585542));
#414=VERTEX_POINT('',#413);
#415=CARTESIAN_POINT('',(2.95257269496410,9.80472606658935,0.0751563324562081));
#416=DIRECTION('',(0.00000000000000,-1.00000000000000,6.12323399573677E-17));
#417=DIRECTION('',(1.00000000000000,0.00000000000000,0.00000000000000));
#418=AXIS2_PLACEMENT_3D('',#415,#416,#417);
#419=CIRCLE('',#418,0.0199999999999996);
#420=EDGE_CURVE('',#383,#414,#419,.T.);
#421=ORIENTED_EDGE('',*,*,#420,.T.);
#422=CARTESIAN_POINT('',(2.95299782514815,3.80472606658935,0.0551608513585542));
#423=VERTEX_POINT('',#422);
#424=CARTESIAN_POINT('',(2.95299782514815,3.80472606658935,0.0551608513585542));
#425=DIRECTION('',(0.00000000000000,1.00000000000000,0.00000000000000));
#426=VECTOR('',#425,1.00000000000000);
#427=LINE('',#424,#426);
#428=EDGE_CURVE('',#423,#414,#427,.T.);
#429=ORIENTED_EDGE('',*,*,#428,.F.);
#430=CARTESIAN_POINT('',(2.95257269496410,3.80472606658935,0.0751563324562081));
#431=DIRECTION('',(0.00000000000000,-1.00000000000000,6.12323399573677E-17));
#432=DIRECTION('',(1.00000000000000,0.00000000000000,0.00000000000000));
#433=AXIS2_PLACEMENT_3D('',#430,#431,#432);
#434=CIRCLE('',#433,0.0199999999999996);
#435=EDGE_CURVE('',#391,#423,#434,.T.);
#436=ORIENTED_EDGE('',*,*,#435,.F.);
#437=ORIENTED_EDGE('',*,*,#396,.T.);
#438=EDGE_LOOP('',(#421,#429,#436,#437));
#439=FACE_OUTER_BOUND('',#438,.T.);
#440=CARTESIAN_POINT('',(2.95257269496410,3.80472606658935,0.0751563324562081));
#441=DIRECTION('',(0.00000000000000,1.00000000000000,0.00000000000000));
#442=DIRECTION('',(1.00000000000000,-0.00000000000000,0.00000000000000));
#443=AXIS2_PLACEMENT_3D('',#440,#441,#442);
#444=CYLINDRICAL_SURFACE('',#443,0.0199999999999996);
#445=ADVANCED_FACE('',(#439),#444,.T.);
#446=CARTESIAN_POINT('',(2.95299782514815,9.80472606658935,0.0551608513585542));
#447=DIRECTION('',(0.999774054882665,0.00000000000000,0.0212565092024472));
#448=VECTOR('',#447,1.00000000000000);
#449=LINE('',#446,#448);
#450=EDGE_CURVE('',#414,#25,#449,.T.);
#451=ORIENTED_EDGE('',*,*,#450,.T.);
#452=ORIENTED_EDGE('',*,*,#54,.F.);
#453=CARTESIAN_POINT('',(2.95299782514815,3.80472606658935,0.0551608513585542));
#454=DIRECTION('',(0.999774054882665,0.00000000000000,0.0212565092024472));
#455=VECTOR('',#454,1.00000000000000);
#456=LINE('',#453,#455);
#457=EDGE_CURVE('',#423,#43,#456,.T.);
#458=ORIENTED_EDGE('',*,*,#457,.F.);
#459=ORIENTED_EDGE('',*,*,#428,.T.);
#460=EDGE_LOOP('',(#451,#452,#458,#459));
#461=FACE_OUTER_BOUND('',#460,.T.);
#462=CARTESIAN_POINT('',(3.18438401937606,3.80472606658935,0.0600804256792762));
#463=DIRECTION('',(0.0212565092024472,0.00000000000000,-0.999774054882665));
#464=DIRECTION('',(-0.999774054882665,-0.00000000000000,-0.0212565092024472));
#465=AXIS2_PLACEMENT_3D('',#462,#463,#464);
#466=PLANE('',#465);
#467=ADVANCED_FACE('',(#461),#466,.T.);
#468=ORIENTED_EDGE('',*,*,#32,.F.);
#469=ORIENTED_EDGE('',*,*,#450,.F.);
#470=ORIENTED_EDGE('',*,*,#420,.F.);
#471=ORIENTED_EDGE('',*,*,#388,.F.);
#472=ORIENTED_EDGE('',*,*,#356,.F.);
#473=ORIENTED_EDGE('',*,*,#324,.F.);
#474=ORIENTED_EDGE('',*,*,#292,.F.);
#475=ORIENTED_EDGE('',*,*,#260,.F.);
#476=ORIENTED_EDGE('',*,*,#229,.F.);
#477=ORIENTED_EDGE('',*,*,#198,.F.);
#478=ORIENTED_EDGE('',*,*,#166,.F.);
#479=ORIENTED_EDGE('',*,*,#134,.F.);
#480=ORIENTED_EDGE('',*,*,#102,.F.);
#481=ORIENTED_EDGE('',*,*,#70,.F.);
#482=EDGE_LOOP('',(#468,#469,#470,#471,#472,#473,#474,#475,#476,#477,#478,#479,#480,#481));
#483=FACE_OUTER_BOUND('',#482,.T.);
#484=CARTESIAN_POINT('',(3.09753321137261,9.80472606658935,0.0582338634579932));
#485=DIRECTION('',(0.00000000000000,-1.00000000000000,0.00000000000000));
#486=DIRECTION('',(1.00000000000000,0.00000000000000,0.00000000000000));
#487=AXIS2_PLACEMENT_3D('',#484,#485,#486);
#488=PLANE('',#487);
#489=ADVANCED_FACE('',(#483),#488,.F.);
#490=ORIENTED_EDGE('',*,*,#457,.T.);
#491=ORIENTED_EDGE('',*,*,#48,.F.);
#492=ORIENTED_EDGE('',*,*,#84,.F.);
#493=ORIENTED_EDGE('',*,*,#117,.T.);
#494=ORIENTED_EDGE('',*,*,#148,.T.);
#495=ORIENTED_EDGE('',*,*,#181,.T.);
#496=ORIENTED_EDGE('',*,*,#212,.F.);
#497=ORIENTED_EDGE('',*,*,#243,.T.);
#498=ORIENTED_EDGE('',*,*,#274,.F.);
#499=ORIENTED_EDGE('',*,*,#307,.T.);
#500=ORIENTED_EDGE('',*,*,#338,.T.);
#501=ORIENTED_EDGE('',*,*,#371,.T.);
#502=ORIENTED_EDGE('',*,*,#402,.F.);
#503=ORIENTED_EDGE('',*,*,#435,.T.);
#504=EDGE_LOOP('',(#490,#491,#492,#493,#494,#495,#496,#497,#498,#499,#500,#501,#502,#503));
#505=FACE_OUTER_BOUND('',#504,.T.);
#506=CARTESIAN_POINT('',(3.09753321137261,3.80472606658935,0.0582338634579932));
#507=DIRECTION('',(0.00000000000000,-1.00000000000000,-0.00000000000000));
#508=DIRECTION('',(1.00000000000000,0.00000000000000,0.00000000000000));
#509=AXIS2_PLACEMENT_3D('',#506,#507,#508);
#510=PLANE('',#509);
#511=ADVANCED_FACE('',(#505),#510,.T.);
#512=CLOSED_SHELL('',(#63,#94,#127,#158,#191,#222,#253,#284,#317,#348,#381,#412,#445,#467,#489,#511));
#513=MANIFOLD_SOLID_BREP('',#512);
#514=COLOUR_RGB('',1.00000000000000,0.00000000000000,0.00000000000000);
#515=FILL_AREA_STYLE_COLOUR('',#514);
#516=FILL_AREA_STYLE('',(#515));
#517=SURFACE_STYLE_FILL_AREA(#516);
#518=SURFACE_SIDE_STYLE('',(#517));
#519=SURFACE_STYLE_USAGE(.BOTH.,#518);
#520=PRESENTATION_STYLE_ASSIGNMENT((#519));
#521=STYLED_ITEM('',(#520),#513);
#522=ADVANCED_BREP_SHAPE_REPRESENTATION('',(#513,#23),#18);
#523=PRODUCT('', '', ' ',(#2));
#524=PRODUCT_DEFINITION_FORMATION_WITH_SPECIFIED_SOURCE (' ', ' ', #523, .NOT_KNOWN.) ;
#525=PRODUCT_CATEGORY('part','') ;
#526=PRODUCT_RELATED_PRODUCT_CATEGORY('detail', ' ', (#523)) ;
#527=PRODUCT_CATEGORY_RELATIONSHIP(' ', ' ', #525, #526);
#528=PRODUCT_DEFINITION('', '', #524, #1);
#529=PRODUCT_DEFINITION_SHAPE('NONE', 'NONE', #528);
#530=SHAPE_DEFINITION_REPRESENTATION(#529, #522);
#531=PRESENTATION_LAYER_ASSIGNMENT('1','Tooled Print [1]',(#513));
#532=MECHANICAL_DESIGN_GEOMETRIC_PRESENTATION_REPRESENTATION('',(#521), #18);
ENDSEC;
END-ISO-10303-21;
