ISO-10303-21;
HEADER;
FILE_DESCRIPTION((''),'2;1');
FILE_NAME('C:/Program Files/Kubotek/KeyCreatorPro.2021.SP0/STEP/SG2088.STP', '2021-02-04T21:25:31',(''), (''), 'KCM Version 2.0.6974.6974', 'KeyCreator Pro', '');
FILE_SCHEMA(('AUTOMOTIVE_DESIGN'));
ENDSEC;
DATA;
#1=PRODUCT_DEFINITION_CONTEXT('',#4,'design');
#2=PRODUCT_CONTEXT('',#4,'mechanical');
#3=APPLICATION_PROTOCOL_DEFINITION('International Standard','automotive_design',2001,#4);
#4=APPLICATION_CONTEXT('automotive design');
#10=DIMENSIONAL_EXPONENTS(1.0,0.0,0.0,0.0,0.0,0.0,0.0);
#11=DIMENSIONAL_EXPONENTS(0.0,0.0,0.0,0.0,0.0,0.0,0.0);
#12=(NAMED_UNIT(#10)LENGTH_UNIT()SI_UNIT(.MILLI.,.METRE.));
#13=(NAMED_UNIT(#11)PLANE_ANGLE_UNIT()SI_UNIT($,.RADIAN.));
#14=(NAMED_UNIT(#11)SOLID_ANGLE_UNIT()SI_UNIT($,.STERADIAN.));
#15=LENGTH_MEASURE_WITH_UNIT(LENGTH_MEASURE(25.4),#12);
#16= (CONVERSION_BASED_UNIT('INCH',#15)LENGTH_UNIT()NAMED_UNIT(#10));
#17=UNCERTAINTY_MEASURE_WITH_UNIT(LENGTH_MEASURE(1.0E-006),#16,'','');
#18=(GEOMETRIC_REPRESENTATION_CONTEXT(3)GLOBAL_UNCERTAINTY_ASSIGNED_CONTEXT((#17))GLOBAL_UNIT_ASSIGNED_CONTEXT((#16,#13,#14))REPRESENTATION_CONTEXT('NONE','WORKSPACE'));
#20=CARTESIAN_POINT('',(0.00000000000000,0.00000000000000,0.00000000000000));
#21=DIRECTION('',(0.00000000000000,0.00000000000000,1.00000000000000));
#22=DIRECTION('',(1.00000000000000,0.00000000000000,0.00000000000000));
#23=AXIS2_PLACEMENT_3D('',#20,#21,#22);
#24=CARTESIAN_POINT('',(2.98389864932151,11.7672011292216,-0.584378243816845));
#25=VERTEX_POINT('',#24);
#26=CARTESIAN_POINT('',(2.99463868828686,11.7672011292216,-0.593282777092186));
#27=VERTEX_POINT('',#26);
#28=CARTESIAN_POINT('',(2.99384191827527,11.7672011292216,-0.583314569753417));
#29=DIRECTION('',(0.00000000000000,-1.00000000000000,6.12323399573677E-17));
#30=DIRECTION('',(1.00000000000000,0.00000000000000,0.00000000000000));
#31=AXIS2_PLACEMENT_3D('',#28,#29,#30);
#32=CIRCLE('',#31,0.00999999999999970);
#33=EDGE_CURVE('',#25,#27,#32,.T.);
#34=ORIENTED_EDGE('',*,*,#33,.T.);
#35=CARTESIAN_POINT('',(2.99463868828686,5.76720112922161,-0.593282777092186));
#36=VERTEX_POINT('',#35);
#37=CARTESIAN_POINT('',(2.99463868828686,5.76720112922161,-0.593282777092186));
#38=DIRECTION('',(0.00000000000000,1.00000000000000,0.00000000000000));
#39=VECTOR('',#38,1.00000000000000);
#40=LINE('',#37,#39);
#41=EDGE_CURVE('',#36,#27,#40,.T.);
#42=ORIENTED_EDGE('',*,*,#41,.F.);
#43=CARTESIAN_POINT('',(2.98389864932151,5.76720112922161,-0.584378243816845));
#44=VERTEX_POINT('',#43);
#45=CARTESIAN_POINT('',(2.99384191827527,5.76720112922161,-0.583314569753417));
#46=DIRECTION('',(0.00000000000000,-1.00000000000000,6.12323399573677E-17));
#47=DIRECTION('',(1.00000000000000,0.00000000000000,0.00000000000000));
#48=AXIS2_PLACEMENT_3D('',#45,#46,#47);
#49=CIRCLE('',#48,0.00999999999999970);
#50=EDGE_CURVE('',#44,#36,#49,.T.);
#51=ORIENTED_EDGE('',*,*,#50,.F.);
#52=CARTESIAN_POINT('',(2.98389864932151,5.76720112922161,-0.584378243816845));
#53=DIRECTION('',(0.00000000000000,1.00000000000000,0.00000000000000));
#54=VECTOR('',#53,1.00000000000000);
#55=LINE('',#52,#54);
#56=EDGE_CURVE('',#44,#25,#55,.T.);
#57=ORIENTED_EDGE('',*,*,#56,.T.);
#58=EDGE_LOOP('',(#34,#42,#51,#57));
#59=FACE_OUTER_BOUND('',#58,.T.);
#60=CARTESIAN_POINT('',(2.99384191827527,5.76720112922161,-0.583314569753417));
#61=DIRECTION('',(0.00000000000000,1.00000000000000,0.00000000000000));
#62=DIRECTION('',(1.00000000000000,-0.00000000000000,0.00000000000000));
#63=AXIS2_PLACEMENT_3D('',#60,#61,#62);
#64=CYLINDRICAL_SURFACE('',#63,0.00999999999999970);
#65=ADVANCED_FACE('',(#59),#64,.T.);
#66=CARTESIAN_POINT('',(2.99962816622982,11.7672011292216,-0.592883962514666));
#67=VERTEX_POINT('',#66);
#68=CARTESIAN_POINT('',(2.99463868828686,11.7672011292216,-0.593282777092186));
#69=DIRECTION('',(0.996820733876616,0.00000000000000,0.0796770011589575));
#70=VECTOR('',#69,1.00000000000000);
#71=LINE('',#68,#70);
#72=EDGE_CURVE('',#27,#67,#71,.T.);
#73=ORIENTED_EDGE('',*,*,#72,.T.);
#74=CARTESIAN_POINT('',(2.99962816622982,5.76720112922161,-0.592883962514666));
#75=VERTEX_POINT('',#74);
#76=CARTESIAN_POINT('',(2.99962816622982,5.76720112922161,-0.592883962514666));
#77=DIRECTION('',(0.00000000000000,1.00000000000000,0.00000000000000));
#78=VECTOR('',#77,1.00000000000000);
#79=LINE('',#76,#78);
#80=EDGE_CURVE('',#75,#67,#79,.T.);
#81=ORIENTED_EDGE('',*,*,#80,.F.);
#82=CARTESIAN_POINT('',(2.99463868828686,5.76720112922161,-0.593282777092186));
#83=DIRECTION('',(0.996820733876616,0.00000000000000,0.0796770011589575));
#84=VECTOR('',#83,1.00000000000000);
#85=LINE('',#82,#84);
#86=EDGE_CURVE('',#36,#75,#85,.T.);
#87=ORIENTED_EDGE('',*,*,#86,.F.);
#88=ORIENTED_EDGE('',*,*,#41,.T.);
#89=EDGE_LOOP('',(#73,#81,#87,#88));
#90=FACE_OUTER_BOUND('',#89,.T.);
#91=CARTESIAN_POINT('',(2.99713342725834,5.76720112922161,-0.593083369803426));
#92=DIRECTION('',(0.0796770011589575,0.00000000000000,-0.996820733876616));
#93=DIRECTION('',(-0.996820733876616,-0.00000000000000,-0.0796770011589575));
#94=AXIS2_PLACEMENT_3D('',#91,#92,#93);
#95=PLANE('',#94);
#96=ADVANCED_FACE('',(#90),#95,.T.);
#97=CARTESIAN_POINT('',(3.00879960355700,11.7672011292216,-0.582118985164310));
#98=VERTEX_POINT('',#97);
#99=CARTESIAN_POINT('',(2.99883139621823,11.7672011292216,-0.582915755175900));
#100=DIRECTION('',(0.00000000000000,-1.00000000000000,6.12323399573677E-17));
#101=DIRECTION('',(1.00000000000000,0.00000000000000,0.00000000000000));
#102=AXIS2_PLACEMENT_3D('',#99,#100,#101);
#103=CIRCLE('',#102,0.0100000000000004);
#104=EDGE_CURVE('',#67,#98,#103,.T.);
#105=ORIENTED_EDGE('',*,*,#104,.T.);
#106=CARTESIAN_POINT('',(3.00879960355700,5.76720112922161,-0.582118985164310));
#107=VERTEX_POINT('',#106);
#108=CARTESIAN_POINT('',(3.00879960355700,5.76720112922161,-0.582118985164310));
#109=DIRECTION('',(0.00000000000000,1.00000000000000,0.00000000000000));
#110=VECTOR('',#109,1.00000000000000);
#111=LINE('',#108,#110);
#112=EDGE_CURVE('',#107,#98,#111,.T.);
#113=ORIENTED_EDGE('',*,*,#112,.F.);
#114=CARTESIAN_POINT('',(2.99883139621823,5.76720112922161,-0.582915755175900));
#115=DIRECTION('',(0.00000000000000,-1.00000000000000,6.12323399573677E-17));
#116=DIRECTION('',(1.00000000000000,0.00000000000000,0.00000000000000));
#117=AXIS2_PLACEMENT_3D('',#114,#115,#116);
#118=CIRCLE('',#117,0.0100000000000004);
#119=EDGE_CURVE('',#75,#107,#118,.T.);
#120=ORIENTED_EDGE('',*,*,#119,.F.);
#121=ORIENTED_EDGE('',*,*,#80,.T.);
#122=EDGE_LOOP('',(#105,#113,#120,#121));
#123=FACE_OUTER_BOUND('',#122,.T.);
#124=CARTESIAN_POINT('',(2.99883139621823,5.76720112922161,-0.582915755175900));
#125=DIRECTION('',(0.00000000000000,1.00000000000000,0.00000000000000));
#126=DIRECTION('',(-0.761198848375606,0.00000000000000,0.648518552727407));
#127=AXIS2_PLACEMENT_3D('',#124,#125,#126);
#128=CYLINDRICAL_SURFACE('',#127,0.0100000000000004);
#129=ADVANCED_FACE('',(#123),#128,.T.);
#130=CARTESIAN_POINT('',(2.88372993486035,11.7672011292216,0.587037428975410));
#131=VERTEX_POINT('',#130);
#132=CARTESIAN_POINT('',(2.88372993486035,11.7672011292216,0.587037428975410));
#133=DIRECTION('',(-0.106367406342580,0.00000000000000,0.994326895375939));
#134=VECTOR('',#133,1.00000000000000);
#135=LINE('',#132,#134);
#136=EDGE_CURVE('',#98,#131,#135,.T.);
#137=ORIENTED_EDGE('',*,*,#136,.T.);
#138=CARTESIAN_POINT('',(2.88372993486035,5.76720112922161,0.587037428975410));
#139=VERTEX_POINT('',#138);
#140=CARTESIAN_POINT('',(2.88372993486035,5.76720112922161,0.587037428975410));
#141=DIRECTION('',(0.00000000000000,1.00000000000000,0.00000000000000));
#142=VECTOR('',#141,1.00000000000000);
#143=LINE('',#140,#142);
#144=EDGE_CURVE('',#139,#131,#143,.T.);
#145=ORIENTED_EDGE('',*,*,#144,.F.);
#146=CARTESIAN_POINT('',(2.88372993486035,5.76720112922161,0.587037428975410));
#147=DIRECTION('',(0.106367406342580,0.00000000000000,-0.994326895375939));
#148=VECTOR('',#147,1.00000000000000);
#149=LINE('',#146,#148);
#150=EDGE_CURVE('',#139,#107,#149,.T.);
#151=ORIENTED_EDGE('',*,*,#150,.T.);
#152=ORIENTED_EDGE('',*,*,#112,.T.);
#153=EDGE_LOOP('',(#137,#145,#151,#152));
#154=FACE_OUTER_BOUND('',#153,.T.);
#155=CARTESIAN_POINT('',(2.94626476920868,5.76720112922161,0.00245922190555026));
#156=DIRECTION('',(0.994326895375939,-0.00000000000000,0.106367406342580));
#157=DIRECTION('',(0.106367406342580,0.00000000000000,-0.994326895375939));
#158=AXIS2_PLACEMENT_3D('',#155,#156,#157);
#159=PLANE('',#158);
#160=ADVANCED_FACE('',(#154),#159,.T.);
#161=CARTESIAN_POINT('',(3.25872993452441,11.7672011292216,0.587037428975409));
#162=VERTEX_POINT('',#161);
#163=CARTESIAN_POINT('',(3.25872993452441,11.7672011292216,0.587037428975409));
#164=DIRECTION('',(1.00000000000000,0.00000000000000,0.00000000000000));
#165=VECTOR('',#164,1.00000000000000);
#166=LINE('',#163,#165);
#167=EDGE_CURVE('',#131,#162,#166,.T.);
#168=ORIENTED_EDGE('',*,*,#167,.T.);
#169=CARTESIAN_POINT('',(3.25872993452441,5.76720112922161,0.587037428975409));
#170=VERTEX_POINT('',#169);
#171=CARTESIAN_POINT('',(3.25872993452441,5.76720112922161,0.587037428975409));
#172=DIRECTION('',(0.00000000000000,1.00000000000000,0.00000000000000));
#173=VECTOR('',#172,1.00000000000000);
#174=LINE('',#171,#173);
#175=EDGE_CURVE('',#170,#162,#174,.T.);
#176=ORIENTED_EDGE('',*,*,#175,.F.);
#177=CARTESIAN_POINT('',(3.25872993452441,5.76720112922161,0.587037428975409));
#178=DIRECTION('',(-1.00000000000000,0.00000000000000,0.00000000000000));
#179=VECTOR('',#178,1.00000000000000);
#180=LINE('',#177,#179);
#181=EDGE_CURVE('',#170,#139,#180,.T.);
#182=ORIENTED_EDGE('',*,*,#181,.T.);
#183=ORIENTED_EDGE('',*,*,#144,.T.);
#184=EDGE_LOOP('',(#168,#176,#182,#183));
#185=FACE_OUTER_BOUND('',#184,.T.);
#186=CARTESIAN_POINT('',(3.07122993469238,5.76720112922161,0.587037428975409));
#187=DIRECTION('',(0.00000000000000,0.00000000000000,-1.00000000000000));
#188=DIRECTION('',(-1.00000000000000,0.00000000000000,0.00000000000000));
#189=AXIS2_PLACEMENT_3D('',#186,#187,#188);
#190=PLANE('',#189);
#191=ADVANCED_FACE('',(#185),#190,.T.);
#192=CARTESIAN_POINT('',(3.13366026582777,11.7672011292216,-0.582118985164310));
#193=VERTEX_POINT('',#192);
#194=CARTESIAN_POINT('',(3.25872993452441,11.7672011292216,0.587037428975409));
#195=DIRECTION('',(-0.106367406342580,0.00000000000000,-0.994326895375939));
#196=VECTOR('',#195,1.00000000000000);
#197=LINE('',#194,#196);
#198=EDGE_CURVE('',#162,#193,#197,.T.);
#199=ORIENTED_EDGE('',*,*,#198,.T.);
#200=CARTESIAN_POINT('',(3.13366026582777,5.76720112922161,-0.582118985164310));
#201=VERTEX_POINT('',#200);
#202=CARTESIAN_POINT('',(3.13366026582777,5.76720112922161,-0.582118985164310));
#203=DIRECTION('',(0.00000000000000,1.00000000000000,0.00000000000000));
#204=VECTOR('',#203,1.00000000000000);
#205=LINE('',#202,#204);
#206=EDGE_CURVE('',#201,#193,#205,.T.);
#207=ORIENTED_EDGE('',*,*,#206,.F.);
#208=CARTESIAN_POINT('',(3.25872993452441,5.76720112922161,0.587037428975409));
#209=DIRECTION('',(-0.106367406342580,0.00000000000000,-0.994326895375939));
#210=VECTOR('',#209,1.00000000000000);
#211=LINE('',#208,#210);
#212=EDGE_CURVE('',#170,#201,#211,.T.);
#213=ORIENTED_EDGE('',*,*,#212,.F.);
#214=ORIENTED_EDGE('',*,*,#175,.T.);
#215=EDGE_LOOP('',(#199,#207,#213,#214));
#216=FACE_OUTER_BOUND('',#215,.T.);
#217=CARTESIAN_POINT('',(3.19619510017609,5.76720112922161,0.00245922190555015));
#218=DIRECTION('',(-0.994326895375939,0.00000000000000,0.106367406342580));
#219=DIRECTION('',(0.106367406342580,-0.00000000000000,0.994326895375939));
#220=AXIS2_PLACEMENT_3D('',#217,#218,#219);
#221=PLANE('',#220);
#222=ADVANCED_FACE('',(#216),#221,.T.);
#223=CARTESIAN_POINT('',(3.14283170315494,11.7672011292216,-0.592883962514666));
#224=VERTEX_POINT('',#223);
#225=CARTESIAN_POINT('',(3.14362847316653,11.7672011292216,-0.582915755175899));
#226=DIRECTION('',(0.00000000000000,-1.00000000000000,6.12323399573677E-17));
#227=DIRECTION('',(1.00000000000000,0.00000000000000,0.00000000000000));
#228=AXIS2_PLACEMENT_3D('',#225,#226,#227);
#229=CIRCLE('',#228,0.00999999999999990);
#230=EDGE_CURVE('',#193,#224,#229,.T.);
#231=ORIENTED_EDGE('',*,*,#230,.T.);
#232=CARTESIAN_POINT('',(3.14283170315494,5.76720112922161,-0.592883962514666));
#233=VERTEX_POINT('',#232);
#234=CARTESIAN_POINT('',(3.14283170315494,5.76720112922161,-0.592883962514666));
#235=DIRECTION('',(0.00000000000000,1.00000000000000,0.00000000000000));
#236=VECTOR('',#235,1.00000000000000);
#237=LINE('',#234,#236);
#238=EDGE_CURVE('',#233,#224,#237,.T.);
#239=ORIENTED_EDGE('',*,*,#238,.F.);
#240=CARTESIAN_POINT('',(3.14362847316653,5.76720112922161,-0.582915755175899));
#241=DIRECTION('',(0.00000000000000,-1.00000000000000,6.12323399573677E-17));
#242=DIRECTION('',(1.00000000000000,0.00000000000000,0.00000000000000));
#243=AXIS2_PLACEMENT_3D('',#240,#241,#242);
#244=CIRCLE('',#243,0.00999999999999990);
#245=EDGE_CURVE('',#201,#233,#244,.T.);
#246=ORIENTED_EDGE('',*,*,#245,.F.);
#247=ORIENTED_EDGE('',*,*,#206,.T.);
#248=EDGE_LOOP('',(#231,#239,#246,#247));
#249=FACE_OUTER_BOUND('',#248,.T.);
#250=CARTESIAN_POINT('',(3.14362847316653,5.76720112922161,-0.582915755175899));
#251=DIRECTION('',(0.00000000000000,1.00000000000000,0.00000000000000));
#252=DIRECTION('',(1.00000000000000,-0.00000000000000,0.00000000000000));
#253=AXIS2_PLACEMENT_3D('',#250,#251,#252);
#254=CYLINDRICAL_SURFACE('',#253,0.00999999999999990);
#255=ADVANCED_FACE('',(#249),#254,.T.);
#256=CARTESIAN_POINT('',(3.14782118109791,11.7672011292216,-0.593282777092188));
#257=VERTEX_POINT('',#256);
#258=CARTESIAN_POINT('',(3.14782118109791,11.7672011292216,-0.593282777092185));
#259=DIRECTION('',(0.996820733876633,0.00000000000000,-0.0796770011587460));
#260=VECTOR('',#259,1.00000000000000);
#261=LINE('',#258,#260);
#262=EDGE_CURVE('',#224,#257,#261,.T.);
#263=ORIENTED_EDGE('',*,*,#262,.T.);
#264=CARTESIAN_POINT('',(3.14782118109791,5.76720112922161,-0.593282777092188));
#265=VERTEX_POINT('',#264);
#266=CARTESIAN_POINT('',(3.14782118109791,5.76720112922161,-0.593282777092188));
#267=DIRECTION('',(0.00000000000000,1.00000000000000,0.00000000000000));
#268=VECTOR('',#267,1.00000000000000);
#269=LINE('',#266,#268);
#270=EDGE_CURVE('',#265,#257,#269,.T.);
#271=ORIENTED_EDGE('',*,*,#270,.F.);
#272=CARTESIAN_POINT('',(3.14782118109791,5.76720112922161,-0.593282777092185));
#273=DIRECTION('',(-0.996820733876633,0.00000000000000,0.0796770011587460));
#274=VECTOR('',#273,1.00000000000000);
#275=LINE('',#272,#274);
#276=EDGE_CURVE('',#265,#233,#275,.T.);
#277=ORIENTED_EDGE('',*,*,#276,.T.);
#278=ORIENTED_EDGE('',*,*,#238,.T.);
#279=EDGE_LOOP('',(#263,#271,#277,#278));
#280=FACE_OUTER_BOUND('',#279,.T.);
#281=CARTESIAN_POINT('',(3.14532644212643,5.76720112922161,-0.593083369803425));
#282=DIRECTION('',(-0.0796770011587460,0.00000000000000,-0.996820733876633));
#283=DIRECTION('',(-0.996820733876633,0.00000000000000,0.0796770011587460));
#284=AXIS2_PLACEMENT_3D('',#281,#282,#283);
#285=PLANE('',#284);
#286=ADVANCED_FACE('',(#280),#285,.T.);
#287=CARTESIAN_POINT('',(3.15856122006326,11.7672011292216,-0.584378243816847));
#288=VERTEX_POINT('',#287);
#289=CARTESIAN_POINT('',(3.14861795110950,11.7672011292216,-0.583314569753421));
#290=DIRECTION('',(0.00000000000000,-1.00000000000000,6.12323399573677E-17));
#291=DIRECTION('',(1.00000000000000,0.00000000000000,0.00000000000000));
#292=AXIS2_PLACEMENT_3D('',#289,#290,#291);
#293=CIRCLE('',#292,0.0100000000000011);
#294=EDGE_CURVE('',#257,#288,#293,.T.);
#295=ORIENTED_EDGE('',*,*,#294,.T.);
#296=CARTESIAN_POINT('',(3.15856122006326,5.76720112922161,-0.584378243816847));
#297=VERTEX_POINT('',#296);
#298=CARTESIAN_POINT('',(3.15856122006326,5.76720112922161,-0.584378243816847));
#299=DIRECTION('',(0.00000000000000,1.00000000000000,0.00000000000000));
#300=VECTOR('',#299,1.00000000000000);
#301=LINE('',#298,#300);
#302=EDGE_CURVE('',#297,#288,#301,.T.);
#303=ORIENTED_EDGE('',*,*,#302,.F.);
#304=CARTESIAN_POINT('',(3.14861795110950,5.76720112922161,-0.583314569753421));
#305=DIRECTION('',(0.00000000000000,-1.00000000000000,6.12323399573677E-17));
#306=DIRECTION('',(1.00000000000000,0.00000000000000,0.00000000000000));
#307=AXIS2_PLACEMENT_3D('',#304,#305,#306);
#308=CIRCLE('',#307,0.0100000000000011);
#309=EDGE_CURVE('',#265,#297,#308,.T.);
#310=ORIENTED_EDGE('',*,*,#309,.F.);
#311=ORIENTED_EDGE('',*,*,#270,.T.);
#312=EDGE_LOOP('',(#295,#303,#310,#311));
#313=FACE_OUTER_BOUND('',#312,.T.);
#314=CARTESIAN_POINT('',(3.14861795110950,5.76720112922161,-0.583314569753421));
#315=DIRECTION('',(0.00000000000000,1.00000000000000,0.00000000000000));
#316=DIRECTION('',(1.00000000000000,-0.00000000000000,0.00000000000000));
#317=AXIS2_PLACEMENT_3D('',#314,#315,#316);
#318=CYLINDRICAL_SURFACE('',#317,0.0100000000000011);
#319=ADVANCED_FACE('',(#313),#318,.T.);
#320=CARTESIAN_POINT('',(3.28358810690881,11.7672011292216,0.584378243816845));
#321=VERTEX_POINT('',#320);
#322=CARTESIAN_POINT('',(3.28358810690881,11.7672011292216,0.584378243816845));
#323=DIRECTION('',(0.106367406342580,0.00000000000000,0.994326895375939));
#324=VECTOR('',#323,1.00000000000000);
#325=LINE('',#322,#324);
#326=EDGE_CURVE('',#288,#321,#325,.T.);
#327=ORIENTED_EDGE('',*,*,#326,.T.);
#328=CARTESIAN_POINT('',(3.28358810690881,5.76720112922161,0.584378243816845));
#329=VERTEX_POINT('',#328);
#330=CARTESIAN_POINT('',(3.28358810690881,5.76720112922161,0.584378243816845));
#331=DIRECTION('',(0.00000000000000,1.00000000000000,0.00000000000000));
#332=VECTOR('',#331,1.00000000000000);
#333=LINE('',#330,#332);
#334=EDGE_CURVE('',#329,#321,#333,.T.);
#335=ORIENTED_EDGE('',*,*,#334,.F.);
#336=CARTESIAN_POINT('',(3.28358810690881,5.76720112922161,0.584378243816845));
#337=DIRECTION('',(-0.106367406342580,0.00000000000000,-0.994326895375939));
#338=VECTOR('',#337,1.00000000000000);
#339=LINE('',#336,#338);
#340=EDGE_CURVE('',#329,#297,#339,.T.);
#341=ORIENTED_EDGE('',*,*,#340,.T.);
#342=ORIENTED_EDGE('',*,*,#302,.T.);
#343=EDGE_LOOP('',(#327,#335,#341,#342));
#344=FACE_OUTER_BOUND('',#343,.T.);
#345=CARTESIAN_POINT('',(3.22107466348603,5.76720112922161,-9.99200722162641E-16));
#346=DIRECTION('',(0.994326895375939,0.00000000000000,-0.106367406342580));
#347=DIRECTION('',(-0.106367406342580,0.00000000000000,-0.994326895375939));
#348=AXIS2_PLACEMENT_3D('',#345,#346,#347);
#349=PLANE('',#348);
#350=ADVANCED_FACE('',(#344),#349,.T.);
#351=CARTESIAN_POINT('',(3.25872993452441,11.7672011292216,0.612037428975410));
#352=VERTEX_POINT('',#351);
#353=CARTESIAN_POINT('',(3.25872993452441,11.7672011292216,0.587037428975409));
#354=DIRECTION('',(0.00000000000000,-1.00000000000000,6.12323399573677E-17));
#355=DIRECTION('',(1.00000000000000,0.00000000000000,0.00000000000000));
#356=AXIS2_PLACEMENT_3D('',#353,#354,#355);
#357=CIRCLE('',#356,0.0250000000000006);
#358=EDGE_CURVE('',#321,#352,#357,.T.);
#359=ORIENTED_EDGE('',*,*,#358,.T.);
#360=CARTESIAN_POINT('',(3.25872993452441,5.76720112922161,0.612037428975410));
#361=VERTEX_POINT('',#360);
#362=CARTESIAN_POINT('',(3.25872993452441,5.76720112922161,0.612037428975410));
#363=DIRECTION('',(0.00000000000000,1.00000000000000,0.00000000000000));
#364=VECTOR('',#363,1.00000000000000);
#365=LINE('',#362,#364);
#366=EDGE_CURVE('',#361,#352,#365,.T.);
#367=ORIENTED_EDGE('',*,*,#366,.F.);
#368=CARTESIAN_POINT('',(3.25872993452441,5.76720112922161,0.587037428975409));
#369=DIRECTION('',(0.00000000000000,-1.00000000000000,6.12323399573677E-17));
#370=DIRECTION('',(1.00000000000000,0.00000000000000,0.00000000000000));
#371=AXIS2_PLACEMENT_3D('',#368,#369,#370);
#372=CIRCLE('',#371,0.0250000000000006);
#373=EDGE_CURVE('',#329,#361,#372,.T.);
#374=ORIENTED_EDGE('',*,*,#373,.F.);
#375=ORIENTED_EDGE('',*,*,#334,.T.);
#376=EDGE_LOOP('',(#359,#367,#374,#375));
#377=FACE_OUTER_BOUND('',#376,.T.);
#378=CARTESIAN_POINT('',(3.25872993452441,5.76720112922161,0.587037428975409));
#379=DIRECTION('',(0.00000000000000,1.00000000000000,0.00000000000000));
#380=DIRECTION('',(-0.743763203695431,0.00000000000000,-0.668443188931347));
#381=AXIS2_PLACEMENT_3D('',#378,#379,#380);
#382=CYLINDRICAL_SURFACE('',#381,0.0250000000000006);
#383=ADVANCED_FACE('',(#377),#382,.T.);
#384=CARTESIAN_POINT('',(2.88372993486035,11.7672011292216,0.612037428975410));
#385=VERTEX_POINT('',#384);
#386=CARTESIAN_POINT('',(3.25872993452441,11.7672011292216,0.612037428975409));
#387=DIRECTION('',(-1.00000000000000,0.00000000000000,0.00000000000000));
#388=VECTOR('',#387,1.00000000000000);
#389=LINE('',#386,#388);
#390=EDGE_CURVE('',#352,#385,#389,.T.);
#391=ORIENTED_EDGE('',*,*,#390,.T.);
#392=CARTESIAN_POINT('',(2.88372993486035,5.76720112922161,0.612037428975410));
#393=VERTEX_POINT('',#392);
#394=CARTESIAN_POINT('',(2.88372993486035,5.76720112922161,0.612037428975410));
#395=DIRECTION('',(0.00000000000000,1.00000000000000,0.00000000000000));
#396=VECTOR('',#395,1.00000000000000);
#397=LINE('',#394,#396);
#398=EDGE_CURVE('',#393,#385,#397,.T.);
#399=ORIENTED_EDGE('',*,*,#398,.F.);
#400=CARTESIAN_POINT('',(3.25872993452441,5.76720112922161,0.612037428975409));
#401=DIRECTION('',(-1.00000000000000,0.00000000000000,0.00000000000000));
#402=VECTOR('',#401,1.00000000000000);
#403=LINE('',#400,#402);
#404=EDGE_CURVE('',#361,#393,#403,.T.);
#405=ORIENTED_EDGE('',*,*,#404,.F.);
#406=ORIENTED_EDGE('',*,*,#366,.T.);
#407=EDGE_LOOP('',(#391,#399,#405,#406));
#408=FACE_OUTER_BOUND('',#407,.T.);
#409=CARTESIAN_POINT('',(3.07122993469238,5.76720112922161,0.612037428975409));
#410=DIRECTION('',(0.00000000000000,-0.00000000000000,1.00000000000000));
#411=DIRECTION('',(1.00000000000000,-0.00000000000000,-0.00000000000000));
#412=AXIS2_PLACEMENT_3D('',#409,#410,#411);
#413=PLANE('',#412);
#414=ADVANCED_FACE('',(#408),#413,.T.);
#415=CARTESIAN_POINT('',(2.85887176247596,11.7672011292216,0.584378243816845));
#416=VERTEX_POINT('',#415);
#417=CARTESIAN_POINT('',(2.88372993486035,11.7672011292216,0.587037428975409));
#418=DIRECTION('',(0.00000000000000,-1.00000000000000,6.12323399573677E-17));
#419=DIRECTION('',(1.00000000000000,0.00000000000000,0.00000000000000));
#420=AXIS2_PLACEMENT_3D('',#417,#418,#419);
#421=CIRCLE('',#420,0.0250000000000003);
#422=EDGE_CURVE('',#385,#416,#421,.T.);
#423=ORIENTED_EDGE('',*,*,#422,.T.);
#424=CARTESIAN_POINT('',(2.85887176247596,5.76720112922161,0.584378243816845));
#425=VERTEX_POINT('',#424);
#426=CARTESIAN_POINT('',(2.85887176247596,5.76720112922161,0.584378243816845));
#427=DIRECTION('',(0.00000000000000,1.00000000000000,0.00000000000000));
#428=VECTOR('',#427,1.00000000000000);
#429=LINE('',#426,#428);
#430=EDGE_CURVE('',#425,#416,#429,.T.);
#431=ORIENTED_EDGE('',*,*,#430,.F.);
#432=CARTESIAN_POINT('',(2.88372993486035,5.76720112922161,0.587037428975409));
#433=DIRECTION('',(0.00000000000000,-1.00000000000000,6.12323399573677E-17));
#434=DIRECTION('',(1.00000000000000,0.00000000000000,0.00000000000000));
#435=AXIS2_PLACEMENT_3D('',#432,#433,#434);
#436=CIRCLE('',#435,0.0250000000000003);
#437=EDGE_CURVE('',#393,#425,#436,.T.);
#438=ORIENTED_EDGE('',*,*,#437,.F.);
#439=ORIENTED_EDGE('',*,*,#398,.T.);
#440=EDGE_LOOP('',(#423,#431,#438,#439));
#441=FACE_OUTER_BOUND('',#440,.T.);
#442=CARTESIAN_POINT('',(2.88372993486035,5.76720112922161,0.587037428975409));
#443=DIRECTION('',(0.00000000000000,1.00000000000000,0.00000000000000));
#444=DIRECTION('',(1.00000000000000,-0.00000000000000,0.00000000000000));
#445=AXIS2_PLACEMENT_3D('',#442,#443,#444);
#446=CYLINDRICAL_SURFACE('',#445,0.0250000000000003);
#447=ADVANCED_FACE('',(#441),#446,.T.);
#448=CARTESIAN_POINT('',(2.85887176247596,11.7672011292216,0.584378243816845));
#449=DIRECTION('',(0.106367406342579,0.00000000000000,-0.994326895375939));
#450=VECTOR('',#449,1.00000000000000);
#451=LINE('',#448,#450);
#452=EDGE_CURVE('',#416,#25,#451,.T.);
#453=ORIENTED_EDGE('',*,*,#452,.T.);
#454=ORIENTED_EDGE('',*,*,#56,.F.);
#455=CARTESIAN_POINT('',(2.85887176247596,5.76720112922161,0.584378243816845));
#456=DIRECTION('',(0.106367406342579,0.00000000000000,-0.994326895375939));
#457=VECTOR('',#456,1.00000000000000);
#458=LINE('',#455,#457);
#459=EDGE_CURVE('',#425,#44,#458,.T.);
#460=ORIENTED_EDGE('',*,*,#459,.F.);
#461=ORIENTED_EDGE('',*,*,#430,.T.);
#462=EDGE_LOOP('',(#453,#454,#460,#461));
#463=FACE_OUTER_BOUND('',#462,.T.);
#464=CARTESIAN_POINT('',(2.92138520589873,5.76720112922161,1.11022302462516E-16));
#465=DIRECTION('',(-0.994326895375939,0.00000000000000,-0.106367406342579));
#466=DIRECTION('',(-0.106367406342579,-0.00000000000000,0.994326895375939));
#467=AXIS2_PLACEMENT_3D('',#464,#465,#466);
#468=PLANE('',#467);
#469=ADVANCED_FACE('',(#463),#468,.T.);
#470=ORIENTED_EDGE('',*,*,#33,.F.);
#471=ORIENTED_EDGE('',*,*,#452,.F.);
#472=ORIENTED_EDGE('',*,*,#422,.F.);
#473=ORIENTED_EDGE('',*,*,#390,.F.);
#474=ORIENTED_EDGE('',*,*,#358,.F.);
#475=ORIENTED_EDGE('',*,*,#326,.F.);
#476=ORIENTED_EDGE('',*,*,#294,.F.);
#477=ORIENTED_EDGE('',*,*,#262,.F.);
#478=ORIENTED_EDGE('',*,*,#230,.F.);
#479=ORIENTED_EDGE('',*,*,#198,.F.);
#480=ORIENTED_EDGE('',*,*,#167,.F.);
#481=ORIENTED_EDGE('',*,*,#136,.F.);
#482=ORIENTED_EDGE('',*,*,#104,.F.);
#483=ORIENTED_EDGE('',*,*,#72,.F.);
#484=EDGE_LOOP('',(#470,#471,#472,#473,#474,#475,#476,#477,#478,#479,#480,#481,#482,#483));
#485=FACE_OUTER_BOUND('',#484,.T.);
#486=CARTESIAN_POINT('',(2.89792078490999,11.7672011292216,0.219346373816653));
#487=DIRECTION('',(0.00000000000000,-1.00000000000000,0.00000000000000));
#488=DIRECTION('',(1.00000000000000,0.00000000000000,0.00000000000000));
#489=AXIS2_PLACEMENT_3D('',#486,#487,#488);
#490=PLANE('',#489);
#491=ADVANCED_FACE('',(#485),#490,.F.);
#492=ORIENTED_EDGE('',*,*,#459,.T.);
#493=ORIENTED_EDGE('',*,*,#50,.T.);
#494=ORIENTED_EDGE('',*,*,#86,.T.);
#495=ORIENTED_EDGE('',*,*,#119,.T.);
#496=ORIENTED_EDGE('',*,*,#150,.F.);
#497=ORIENTED_EDGE('',*,*,#181,.F.);
#498=ORIENTED_EDGE('',*,*,#212,.T.);
#499=ORIENTED_EDGE('',*,*,#245,.T.);
#500=ORIENTED_EDGE('',*,*,#276,.F.);
#501=ORIENTED_EDGE('',*,*,#309,.T.);
#502=ORIENTED_EDGE('',*,*,#340,.F.);
#503=ORIENTED_EDGE('',*,*,#373,.T.);
#504=ORIENTED_EDGE('',*,*,#404,.T.);
#505=ORIENTED_EDGE('',*,*,#437,.T.);
#506=EDGE_LOOP('',(#492,#493,#494,#495,#496,#497,#498,#499,#500,#501,#502,#503,#504,#505));
#507=FACE_OUTER_BOUND('',#506,.T.);
#508=CARTESIAN_POINT('',(2.89792078490999,5.76720112922161,0.219346373816653));
#509=DIRECTION('',(0.00000000000000,-1.00000000000000,0.00000000000000));
#510=DIRECTION('',(1.00000000000000,0.00000000000000,0.00000000000000));
#511=AXIS2_PLACEMENT_3D('',#508,#509,#510);
#512=PLANE('',#511);
#513=ADVANCED_FACE('',(#507),#512,.T.);
#514=CLOSED_SHELL('',(#65,#96,#129,#160,#191,#222,#255,#286,#319,#350,#383,#414,#447,#469,#491,#513));
#515=MANIFOLD_SOLID_BREP('',#514);
#516=COLOUR_RGB('',1.00000000000000,0.00000000000000,0.00000000000000);
#517=FILL_AREA_STYLE_COLOUR('',#516);
#518=FILL_AREA_STYLE('',(#517));
#519=SURFACE_STYLE_FILL_AREA(#518);
#520=SURFACE_SIDE_STYLE('',(#519));
#521=SURFACE_STYLE_USAGE(.BOTH.,#520);
#522=PRESENTATION_STYLE_ASSIGNMENT((#521));
#523=STYLED_ITEM('',(#522),#515);
#524=ADVANCED_BREP_SHAPE_REPRESENTATION('',(#515,#23),#18);
#525=PRODUCT('', '', ' ',(#2));
#526=PRODUCT_DEFINITION_FORMATION_WITH_SPECIFIED_SOURCE (' ', ' ', #525, .NOT_KNOWN.) ;
#527=PRODUCT_CATEGORY('part','') ;
#528=PRODUCT_RELATED_PRODUCT_CATEGORY('detail', ' ', (#525)) ;
#529=PRODUCT_CATEGORY_RELATIONSHIP(' ', ' ', #527, #528);
#530=PRODUCT_DEFINITION('', '', #526, #1);
#531=PRODUCT_DEFINITION_SHAPE('NONE', 'NONE', #530);
#532=SHAPE_DEFINITION_REPRESENTATION(#531, #524);
#533=PRESENTATION_LAYER_ASSIGNMENT('1','Unnamed [1]',(#515));
#534=MECHANICAL_DESIGN_GEOMETRIC_PRESENTATION_REPRESENTATION('',(#523), #18);
ENDSEC;
END-ISO-10303-21;
