ISO-10303-21;
HEADER;
FILE_DESCRIPTION((''),'2;1');
FILE_NAME('C:/Program Files/Kubotek/KeyCreatorPro.2021.SP0/STEP/SG2086.STP', '2021-02-05T21:30:13',(''), (''), 'KCM Version 2.0.6974.6974', 'KeyCreator Pro', '');
FILE_SCHEMA(('AUTOMOTIVE_DESIGN'));
ENDSEC;
DATA;
#1=PRODUCT_DEFINITION_CONTEXT('',#4,'design');
#2=PRODUCT_CONTEXT('',#4,'mechanical');
#3=APPLICATION_PROTOCOL_DEFINITION('International Standard','automotive_design',2001,#4);
#4=APPLICATION_CONTEXT('automotive design');
#10=DIMENSIONAL_EXPONENTS(1.0,0.0,0.0,0.0,0.0,0.0,0.0);
#11=DIMENSIONAL_EXPONENTS(0.0,0.0,0.0,0.0,0.0,0.0,0.0);
#12=(NAMED_UNIT(#10)LENGTH_UNIT()SI_UNIT(.MILLI.,.METRE.));
#13=(NAMED_UNIT(#11)PLANE_ANGLE_UNIT()SI_UNIT($,.RADIAN.));
#14=(NAMED_UNIT(#11)SOLID_ANGLE_UNIT()SI_UNIT($,.STERADIAN.));
#15=LENGTH_MEASURE_WITH_UNIT(LENGTH_MEASURE(25.4),#12);
#16= (CONVERSION_BASED_UNIT('INCH',#15)LENGTH_UNIT()NAMED_UNIT(#10));
#17=UNCERTAINTY_MEASURE_WITH_UNIT(LENGTH_MEASURE(1.0E-006),#16,'','');
#18=(GEOMETRIC_REPRESENTATION_CONTEXT(3)GLOBAL_UNCERTAINTY_ASSIGNED_CONTEXT((#17))GLOBAL_UNIT_ASSIGNED_CONTEXT((#16,#13,#14))REPRESENTATION_CONTEXT('NONE','WORKSPACE'));
#20=CARTESIAN_POINT('',(0.00000000000000,0.00000000000000,0.00000000000000));
#21=DIRECTION('',(0.00000000000000,0.00000000000000,1.00000000000000));
#22=DIRECTION('',(1.00000000000000,0.00000000000000,0.00000000000000));
#23=AXIS2_PLACEMENT_3D('',#20,#21,#22);
#24=CARTESIAN_POINT('',(0.875000000000000,6.28125000000000,-0.281250000000000));
#25=VERTEX_POINT('',#24);
#26=CARTESIAN_POINT('',(0.937500000000000,6.28125000000000,-0.281250000000000));
#27=VERTEX_POINT('',#26);
#28=CARTESIAN_POINT('',(0.875000000000000,6.28125000000000,-0.281250000000000));
#29=DIRECTION('',(1.00000000000000,0.00000000000000,0.00000000000000));
#30=VECTOR('',#29,1.00000000000000);
#31=LINE('',#28,#30);
#32=EDGE_CURVE('',#25,#27,#31,.T.);
#33=ORIENTED_EDGE('',*,*,#32,.T.);
#34=CARTESIAN_POINT('',(0.937500000000000,0.281250000000000,-0.281250000000000));
#35=VERTEX_POINT('',#34);
#36=CARTESIAN_POINT('',(0.937500000000000,0.281250000000000,-0.281250000000000));
#37=DIRECTION('',(0.00000000000000,1.00000000000000,0.00000000000000));
#38=VECTOR('',#37,1.00000000000000);
#39=LINE('',#36,#38);
#40=EDGE_CURVE('',#35,#27,#39,.T.);
#41=ORIENTED_EDGE('',*,*,#40,.F.);
#42=CARTESIAN_POINT('',(0.875000000000000,0.281250000000000,-0.281250000000000));
#43=VERTEX_POINT('',#42);
#44=CARTESIAN_POINT('',(0.875000000000000,0.281250000000000,-0.281250000000000));
#45=DIRECTION('',(1.00000000000000,0.00000000000000,0.00000000000000));
#46=VECTOR('',#45,1.00000000000000);
#47=LINE('',#44,#46);
#48=EDGE_CURVE('',#43,#35,#47,.T.);
#49=ORIENTED_EDGE('',*,*,#48,.F.);
#50=CARTESIAN_POINT('',(0.875000000000000,0.281250000000000,-0.281250000000000));
#51=DIRECTION('',(0.00000000000000,1.00000000000000,0.00000000000000));
#52=VECTOR('',#51,1.00000000000000);
#53=LINE('',#50,#52);
#54=EDGE_CURVE('',#43,#25,#53,.T.);
#55=ORIENTED_EDGE('',*,*,#54,.T.);
#56=EDGE_LOOP('',(#33,#41,#49,#55));
#57=FACE_OUTER_BOUND('',#56,.T.);
#58=CARTESIAN_POINT('',(0.906250000000000,0.281250000000000,-0.281250000000000));
#59=DIRECTION('',(0.00000000000000,0.00000000000000,-1.00000000000000));
#60=DIRECTION('',(-1.00000000000000,-0.00000000000000,-0.00000000000000));
#61=AXIS2_PLACEMENT_3D('',#58,#59,#60);
#62=PLANE('',#61);
#63=ADVANCED_FACE('',(#57),#62,.T.);
#64=CARTESIAN_POINT('',(1.00000000000000,6.28125000000000,-0.218750000000000));
#65=VERTEX_POINT('',#64);
#66=CARTESIAN_POINT('',(0.937500000000000,6.28125000000000,-0.281250000000000));
#67=DIRECTION('',(0.707106781186547,0.00000000000000,0.707106781186547));
#68=VECTOR('',#67,1.00000000000000);
#69=LINE('',#66,#68);
#70=EDGE_CURVE('',#27,#65,#69,.T.);
#71=ORIENTED_EDGE('',*,*,#70,.T.);
#72=CARTESIAN_POINT('',(1.00000000000000,0.281250000000000,-0.218750000000000));
#73=VERTEX_POINT('',#72);
#74=CARTESIAN_POINT('',(1.00000000000000,0.281250000000000,-0.218750000000000));
#75=DIRECTION('',(0.00000000000000,1.00000000000000,0.00000000000000));
#76=VECTOR('',#75,1.00000000000000);
#77=LINE('',#74,#76);
#78=EDGE_CURVE('',#73,#65,#77,.T.);
#79=ORIENTED_EDGE('',*,*,#78,.F.);
#80=CARTESIAN_POINT('',(0.937500000000000,0.281250000000000,-0.281250000000000));
#81=DIRECTION('',(0.707106781186548,0.00000000000000,0.707106781186548));
#82=VECTOR('',#81,1.00000000000000);
#83=LINE('',#80,#82);
#84=EDGE_CURVE('',#35,#73,#83,.T.);
#85=ORIENTED_EDGE('',*,*,#84,.F.);
#86=ORIENTED_EDGE('',*,*,#40,.T.);
#87=EDGE_LOOP('',(#71,#79,#85,#86));
#88=FACE_OUTER_BOUND('',#87,.T.);
#89=CARTESIAN_POINT('',(0.968750000000000,0.281250000000000,-0.250000000000000));
#90=DIRECTION('',(0.707106781186548,0.00000000000000,-0.707106781186548));
#91=DIRECTION('',(-0.707106781186548,-0.00000000000000,-0.707106781186548));
#92=AXIS2_PLACEMENT_3D('',#89,#90,#91);
#93=PLANE('',#92);
#94=ADVANCED_FACE('',(#88),#93,.T.);
#95=CARTESIAN_POINT('',(1.00000000000000,6.28125000000000,0.218750000000000));
#96=VERTEX_POINT('',#95);
#97=CARTESIAN_POINT('',(1.00000000000000,6.28125000000000,-0.218750000000000));
#98=DIRECTION('',(0.00000000000000,1.26882631385732E-16,1.00000000000000));
#99=VECTOR('',#98,1.00000000000000);
#100=LINE('',#97,#99);
#101=EDGE_CURVE('',#65,#96,#100,.T.);
#102=ORIENTED_EDGE('',*,*,#101,.T.);
#103=CARTESIAN_POINT('',(1.00000000000000,0.281250000000000,0.218750000000000));
#104=VERTEX_POINT('',#103);
#105=CARTESIAN_POINT('',(1.00000000000000,0.281250000000000,0.218750000000000));
#106=DIRECTION('',(0.00000000000000,1.00000000000000,0.00000000000000));
#107=VECTOR('',#106,1.00000000000000);
#108=LINE('',#105,#107);
#109=EDGE_CURVE('',#104,#96,#108,.T.);
#110=ORIENTED_EDGE('',*,*,#109,.F.);
#111=CARTESIAN_POINT('',(1.00000000000000,0.281250000000000,-0.218750000000000));
#112=DIRECTION('',(0.00000000000000,1.26882631385732E-16,1.00000000000000));
#113=VECTOR('',#112,1.00000000000000);
#114=LINE('',#111,#113);
#115=EDGE_CURVE('',#73,#104,#114,.T.);
#116=ORIENTED_EDGE('',*,*,#115,.F.);
#117=ORIENTED_EDGE('',*,*,#78,.T.);
#118=EDGE_LOOP('',(#102,#110,#116,#117));
#119=FACE_OUTER_BOUND('',#118,.T.);
#120=CARTESIAN_POINT('',(1.00000000000000,0.281250000000000,0.00000000000000));
#121=DIRECTION('',(1.00000000000000,0.00000000000000,0.00000000000000));
#122=DIRECTION('',(-0.00000000000000,-1.26882631385732E-16,-1.00000000000000));
#123=AXIS2_PLACEMENT_3D('',#120,#121,#122);
#124=PLANE('',#123);
#125=ADVANCED_FACE('',(#119),#124,.T.);
#126=CARTESIAN_POINT('',(0.00000000000000,6.28125000000000,0.218750000000000));
#127=VERTEX_POINT('',#126);
#128=CARTESIAN_POINT('',(1.00000000000000,6.28125000000000,0.218750000000000));
#129=DIRECTION('',(-1.00000000000000,0.00000000000000,2.22044604925031E-16));
#130=VECTOR('',#129,1.00000000000000);
#131=LINE('',#128,#130);
#132=EDGE_CURVE('',#96,#127,#131,.T.);
#133=ORIENTED_EDGE('',*,*,#132,.T.);
#134=CARTESIAN_POINT('',(0.00000000000000,0.281250000000000,0.218750000000000));
#135=VERTEX_POINT('',#134);
#136=CARTESIAN_POINT('',(0.00000000000000,0.281250000000000,0.218750000000000));
#137=DIRECTION('',(0.00000000000000,1.00000000000000,0.00000000000000));
#138=VECTOR('',#137,1.00000000000000);
#139=LINE('',#136,#138);
#140=EDGE_CURVE('',#135,#127,#139,.T.);
#141=ORIENTED_EDGE('',*,*,#140,.F.);
#142=CARTESIAN_POINT('',(1.00000000000000,0.281250000000000,0.218750000000000));
#143=DIRECTION('',(-1.00000000000000,0.00000000000000,2.22044604925031E-16));
#144=VECTOR('',#143,1.00000000000000);
#145=LINE('',#142,#144);
#146=EDGE_CURVE('',#104,#135,#145,.T.);
#147=ORIENTED_EDGE('',*,*,#146,.F.);
#148=ORIENTED_EDGE('',*,*,#109,.T.);
#149=EDGE_LOOP('',(#133,#141,#147,#148));
#150=FACE_OUTER_BOUND('',#149,.T.);
#151=CARTESIAN_POINT('',(0.500000000000000,0.281250000000000,0.218750000000000));
#152=DIRECTION('',(2.22044604925031E-16,-0.00000000000000,1.00000000000000));
#153=DIRECTION('',(1.00000000000000,-0.00000000000000,-2.22044604925031E-16));
#154=AXIS2_PLACEMENT_3D('',#151,#152,#153);
#155=PLANE('',#154);
#156=ADVANCED_FACE('',(#150),#155,.T.);
#157=CARTESIAN_POINT('',(0.00000000000000,6.28125000000000,-0.218750000000000));
#158=VERTEX_POINT('',#157);
#159=CARTESIAN_POINT('',(0.00000000000000,6.28125000000000,0.218750000000000));
#160=DIRECTION('',(0.00000000000000,-1.26882631385732E-16,-1.00000000000000));
#161=VECTOR('',#160,1.00000000000000);
#162=LINE('',#159,#161);
#163=EDGE_CURVE('',#127,#158,#162,.T.);
#164=ORIENTED_EDGE('',*,*,#163,.T.);
#165=CARTESIAN_POINT('',(0.00000000000000,0.281250000000000,-0.218750000000000));
#166=VERTEX_POINT('',#165);
#167=CARTESIAN_POINT('',(0.00000000000000,0.281250000000000,-0.218750000000000));
#168=DIRECTION('',(0.00000000000000,1.00000000000000,0.00000000000000));
#169=VECTOR('',#168,1.00000000000000);
#170=LINE('',#167,#169);
#171=EDGE_CURVE('',#166,#158,#170,.T.);
#172=ORIENTED_EDGE('',*,*,#171,.F.);
#173=CARTESIAN_POINT('',(0.00000000000000,0.281250000000000,0.218750000000000));
#174=DIRECTION('',(0.00000000000000,-1.26882631385732E-16,-1.00000000000000));
#175=VECTOR('',#174,1.00000000000000);
#176=LINE('',#173,#175);
#177=EDGE_CURVE('',#135,#166,#176,.T.);
#178=ORIENTED_EDGE('',*,*,#177,.F.);
#179=ORIENTED_EDGE('',*,*,#140,.T.);
#180=EDGE_LOOP('',(#164,#172,#178,#179));
#181=FACE_OUTER_BOUND('',#180,.T.);
#182=CARTESIAN_POINT('',(0.00000000000000,0.281250000000000,2.22044604925031E-16));
#183=DIRECTION('',(-1.00000000000000,0.00000000000000,-0.00000000000000));
#184=DIRECTION('',(-0.00000000000000,1.26882631385732E-16,1.00000000000000));
#185=AXIS2_PLACEMENT_3D('',#182,#183,#184);
#186=PLANE('',#185);
#187=ADVANCED_FACE('',(#181),#186,.T.);
#188=CARTESIAN_POINT('',(0.0624999999999999,6.28125000000000,-0.281250000000000));
#189=VERTEX_POINT('',#188);
#190=CARTESIAN_POINT('',(0.0624999999999999,6.28125000000000,-0.281250000000000));
#191=DIRECTION('',(0.707106781186547,0.00000000000000,-0.707106781186548));
#192=VECTOR('',#191,1.00000000000000);
#193=LINE('',#190,#192);
#194=EDGE_CURVE('',#158,#189,#193,.T.);
#195=ORIENTED_EDGE('',*,*,#194,.T.);
#196=CARTESIAN_POINT('',(0.0624999999999999,0.281250000000000,-0.281250000000000));
#197=VERTEX_POINT('',#196);
#198=CARTESIAN_POINT('',(0.0624999999999999,0.281250000000000,-0.281250000000000));
#199=DIRECTION('',(0.00000000000000,1.00000000000000,0.00000000000000));
#200=VECTOR('',#199,1.00000000000000);
#201=LINE('',#198,#200);
#202=EDGE_CURVE('',#197,#189,#201,.T.);
#203=ORIENTED_EDGE('',*,*,#202,.F.);
#204=CARTESIAN_POINT('',(0.0624999999999999,0.281250000000000,-0.281250000000000));
#205=DIRECTION('',(-0.707106781186547,0.00000000000000,0.707106781186548));
#206=VECTOR('',#205,1.00000000000000);
#207=LINE('',#204,#206);
#208=EDGE_CURVE('',#197,#166,#207,.T.);
#209=ORIENTED_EDGE('',*,*,#208,.T.);
#210=ORIENTED_EDGE('',*,*,#171,.T.);
#211=EDGE_LOOP('',(#195,#203,#209,#210));
#212=FACE_OUTER_BOUND('',#211,.T.);
#213=CARTESIAN_POINT('',(0.0312499999999999,0.281250000000000,-0.250000000000000));
#214=DIRECTION('',(-0.707106781186548,0.00000000000000,-0.707106781186547));
#215=DIRECTION('',(-0.707106781186547,0.00000000000000,0.707106781186548));
#216=AXIS2_PLACEMENT_3D('',#213,#214,#215);
#217=PLANE('',#216);
#218=ADVANCED_FACE('',(#212),#217,.T.);
#219=CARTESIAN_POINT('',(0.125000000000000,6.28125000000000,-0.281250000000000));
#220=VERTEX_POINT('',#219);
#221=CARTESIAN_POINT('',(0.0624999999999999,6.28125000000000,-0.281250000000000));
#222=DIRECTION('',(1.00000000000000,0.00000000000000,0.00000000000000));
#223=VECTOR('',#222,1.00000000000000);
#224=LINE('',#221,#223);
#225=EDGE_CURVE('',#189,#220,#224,.T.);
#226=ORIENTED_EDGE('',*,*,#225,.T.);
#227=CARTESIAN_POINT('',(0.125000000000000,0.281250000000000,-0.281250000000000));
#228=VERTEX_POINT('',#227);
#229=CARTESIAN_POINT('',(0.125000000000000,0.281250000000000,-0.281250000000000));
#230=DIRECTION('',(0.00000000000000,1.00000000000000,0.00000000000000));
#231=VECTOR('',#230,1.00000000000000);
#232=LINE('',#229,#231);
#233=EDGE_CURVE('',#228,#220,#232,.T.);
#234=ORIENTED_EDGE('',*,*,#233,.F.);
#235=CARTESIAN_POINT('',(0.0624999999999999,0.281250000000000,-0.281250000000000));
#236=DIRECTION('',(1.00000000000000,0.00000000000000,0.00000000000000));
#237=VECTOR('',#236,1.00000000000000);
#238=LINE('',#235,#237);
#239=EDGE_CURVE('',#197,#228,#238,.T.);
#240=ORIENTED_EDGE('',*,*,#239,.F.);
#241=ORIENTED_EDGE('',*,*,#202,.T.);
#242=EDGE_LOOP('',(#226,#234,#240,#241));
#243=FACE_OUTER_BOUND('',#242,.T.);
#244=CARTESIAN_POINT('',(0.0937499999999999,0.281250000000000,-0.281250000000000));
#245=DIRECTION('',(0.00000000000000,0.00000000000000,-1.00000000000000));
#246=DIRECTION('',(-1.00000000000000,-0.00000000000000,-0.00000000000000));
#247=AXIS2_PLACEMENT_3D('',#244,#245,#246);
#248=PLANE('',#247);
#249=ADVANCED_FACE('',(#243),#248,.T.);
#250=CARTESIAN_POINT('',(0.125000000000000,6.28125000000000,0.0937500000000002));
#251=VERTEX_POINT('',#250);
#252=CARTESIAN_POINT('',(0.125000000000000,6.28125000000000,0.0937500000000002));
#253=DIRECTION('',(2.59052039079203E-16,0.00000000000000,1.00000000000000));
#254=VECTOR('',#253,1.00000000000000);
#255=LINE('',#252,#254);
#256=EDGE_CURVE('',#220,#251,#255,.T.);
#257=ORIENTED_EDGE('',*,*,#256,.T.);
#258=CARTESIAN_POINT('',(0.125000000000000,0.281250000000000,0.0937500000000002));
#259=VERTEX_POINT('',#258);
#260=CARTESIAN_POINT('',(0.125000000000000,0.281250000000000,0.0937500000000002));
#261=DIRECTION('',(0.00000000000000,1.00000000000000,0.00000000000000));
#262=VECTOR('',#261,1.00000000000000);
#263=LINE('',#260,#262);
#264=EDGE_CURVE('',#259,#251,#263,.T.);
#265=ORIENTED_EDGE('',*,*,#264,.F.);
#266=CARTESIAN_POINT('',(0.125000000000000,0.281250000000000,0.0937500000000002));
#267=DIRECTION('',(-2.59052039079203E-16,0.00000000000000,-1.00000000000000));
#268=VECTOR('',#267,1.00000000000000);
#269=LINE('',#266,#268);
#270=EDGE_CURVE('',#259,#228,#269,.T.);
#271=ORIENTED_EDGE('',*,*,#270,.T.);
#272=ORIENTED_EDGE('',*,*,#233,.T.);
#273=EDGE_LOOP('',(#257,#265,#271,#272));
#274=FACE_OUTER_BOUND('',#273,.T.);
#275=CARTESIAN_POINT('',(0.125000000000000,0.281250000000000,-0.0937499999999998));
#276=DIRECTION('',(1.00000000000000,0.00000000000000,-2.59052039079203E-16));
#277=DIRECTION('',(-2.59052039079203E-16,0.00000000000000,-1.00000000000000));
#278=AXIS2_PLACEMENT_3D('',#275,#276,#277);
#279=PLANE('',#278);
#280=ADVANCED_FACE('',(#274),#279,.T.);
#281=CARTESIAN_POINT('',(0.875000000000000,6.28125000000000,0.0937500000000000));
#282=VERTEX_POINT('',#281);
#283=CARTESIAN_POINT('',(0.875000000000000,6.28125000000000,0.0937500000000000));
#284=DIRECTION('',(1.00000000000000,0.00000000000000,-2.96059473233375E-16));
#285=VECTOR('',#284,1.00000000000000);
#286=LINE('',#283,#285);
#287=EDGE_CURVE('',#251,#282,#286,.T.);
#288=ORIENTED_EDGE('',*,*,#287,.T.);
#289=CARTESIAN_POINT('',(0.875000000000000,0.281250000000000,0.0937500000000000));
#290=VERTEX_POINT('',#289);
#291=CARTESIAN_POINT('',(0.875000000000000,0.281250000000000,0.0937500000000000));
#292=DIRECTION('',(0.00000000000000,1.00000000000000,0.00000000000000));
#293=VECTOR('',#292,1.00000000000000);
#294=LINE('',#291,#293);
#295=EDGE_CURVE('',#290,#282,#294,.T.);
#296=ORIENTED_EDGE('',*,*,#295,.F.);
#297=CARTESIAN_POINT('',(0.875000000000000,0.281250000000000,0.0937500000000000));
#298=DIRECTION('',(-1.00000000000000,0.00000000000000,2.96059473233375E-16));
#299=VECTOR('',#298,1.00000000000000);
#300=LINE('',#297,#299);
#301=EDGE_CURVE('',#290,#259,#300,.T.);
#302=ORIENTED_EDGE('',*,*,#301,.T.);
#303=ORIENTED_EDGE('',*,*,#264,.T.);
#304=EDGE_LOOP('',(#288,#296,#302,#303));
#305=FACE_OUTER_BOUND('',#304,.T.);
#306=CARTESIAN_POINT('',(0.500000000000000,0.281250000000000,0.0937500000000001));
#307=DIRECTION('',(-2.96059473233375E-16,0.00000000000000,-1.00000000000000));
#308=DIRECTION('',(-1.00000000000000,0.00000000000000,2.96059473233375E-16));
#309=AXIS2_PLACEMENT_3D('',#306,#307,#308);
#310=PLANE('',#309);
#311=ADVANCED_FACE('',(#305),#310,.T.);
#312=CARTESIAN_POINT('',(0.875000000000000,6.28125000000000,-0.281250000000000));
#313=DIRECTION('',(-0.00000000000000,-0.00000000000000,-1.00000000000000));
#314=VECTOR('',#313,1.00000000000000);
#315=LINE('',#312,#314);
#316=EDGE_CURVE('',#282,#25,#315,.T.);
#317=ORIENTED_EDGE('',*,*,#316,.T.);
#318=ORIENTED_EDGE('',*,*,#54,.F.);
#319=CARTESIAN_POINT('',(0.875000000000000,0.281250000000000,-0.281250000000000));
#320=DIRECTION('',(0.00000000000000,0.00000000000000,1.00000000000000));
#321=VECTOR('',#320,1.00000000000000);
#322=LINE('',#319,#321);
#323=EDGE_CURVE('',#43,#290,#322,.T.);
#324=ORIENTED_EDGE('',*,*,#323,.T.);
#325=ORIENTED_EDGE('',*,*,#295,.T.);
#326=EDGE_LOOP('',(#317,#318,#324,#325));
#327=FACE_OUTER_BOUND('',#326,.T.);
#328=CARTESIAN_POINT('',(0.875000000000000,0.281250000000000,-0.0937500000000000));
#329=DIRECTION('',(-1.00000000000000,0.00000000000000,0.00000000000000));
#330=DIRECTION('',(0.00000000000000,0.00000000000000,1.00000000000000));
#331=AXIS2_PLACEMENT_3D('',#328,#329,#330);
#332=PLANE('',#331);
#333=ADVANCED_FACE('',(#327),#332,.T.);
#334=ORIENTED_EDGE('',*,*,#32,.F.);
#335=ORIENTED_EDGE('',*,*,#316,.F.);
#336=ORIENTED_EDGE('',*,*,#287,.F.);
#337=ORIENTED_EDGE('',*,*,#256,.F.);
#338=ORIENTED_EDGE('',*,*,#225,.F.);
#339=ORIENTED_EDGE('',*,*,#194,.F.);
#340=ORIENTED_EDGE('',*,*,#163,.F.);
#341=ORIENTED_EDGE('',*,*,#132,.F.);
#342=ORIENTED_EDGE('',*,*,#101,.F.);
#343=ORIENTED_EDGE('',*,*,#70,.F.);
#344=EDGE_LOOP('',(#334,#335,#336,#337,#338,#339,#340,#341,#342,#343));
#345=FACE_OUTER_BOUND('',#344,.T.);
#346=CARTESIAN_POINT('',(0.875000000000000,6.28125000000000,-0.164128125000000));
#347=DIRECTION('',(0.00000000000000,1.00000000000000,0.00000000000000));
#348=DIRECTION('',(-1.00000000000000,0.00000000000000,0.00000000000000));
#349=AXIS2_PLACEMENT_3D('',#346,#347,#348);
#350=PLANE('',#349);
#351=ADVANCED_FACE('',(#345),#350,.T.);
#352=ORIENTED_EDGE('',*,*,#323,.F.);
#353=ORIENTED_EDGE('',*,*,#48,.T.);
#354=ORIENTED_EDGE('',*,*,#84,.T.);
#355=ORIENTED_EDGE('',*,*,#115,.T.);
#356=ORIENTED_EDGE('',*,*,#146,.T.);
#357=ORIENTED_EDGE('',*,*,#177,.T.);
#358=ORIENTED_EDGE('',*,*,#208,.F.);
#359=ORIENTED_EDGE('',*,*,#239,.T.);
#360=ORIENTED_EDGE('',*,*,#270,.F.);
#361=ORIENTED_EDGE('',*,*,#301,.F.);
#362=EDGE_LOOP('',(#352,#353,#354,#355,#356,#357,#358,#359,#360,#361));
#363=FACE_OUTER_BOUND('',#362,.T.);
#364=CARTESIAN_POINT('',(0.875000000000000,0.281250000000000,-0.164128125000000));
#365=DIRECTION('',(-0.00000000000000,1.00000000000000,0.00000000000000));
#366=DIRECTION('',(-1.00000000000000,-0.00000000000000,0.00000000000000));
#367=AXIS2_PLACEMENT_3D('',#364,#365,#366);
#368=PLANE('',#367);
#369=ADVANCED_FACE('',(#363),#368,.F.);
#370=CLOSED_SHELL('',(#63,#94,#125,#156,#187,#218,#249,#280,#311,#333,#351,#369));
#371=MANIFOLD_SOLID_BREP('',#370);
#372=COLOUR_RGB('',1.00000000000000,0.00000000000000,0.00000000000000);
#373=FILL_AREA_STYLE_COLOUR('',#372);
#374=FILL_AREA_STYLE('',(#373));
#375=SURFACE_STYLE_FILL_AREA(#374);
#376=SURFACE_SIDE_STYLE('',(#375));
#377=SURFACE_STYLE_USAGE(.BOTH.,#376);
#378=PRESENTATION_STYLE_ASSIGNMENT((#377));
#379=STYLED_ITEM('',(#378),#371);
#380=ADVANCED_BREP_SHAPE_REPRESENTATION('',(#371,#23),#18);
#381=PRODUCT('', '', ' ',(#2));
#382=PRODUCT_DEFINITION_FORMATION_WITH_SPECIFIED_SOURCE (' ', ' ', #381, .NOT_KNOWN.) ;
#383=PRODUCT_CATEGORY('part','') ;
#384=PRODUCT_RELATED_PRODUCT_CATEGORY('detail', ' ', (#381)) ;
#385=PRODUCT_CATEGORY_RELATIONSHIP(' ', ' ', #383, #384);
#386=PRODUCT_DEFINITION('', '', #382, #1);
#387=PRODUCT_DEFINITION_SHAPE('NONE', 'NONE', #386);
#388=SHAPE_DEFINITION_REPRESENTATION(#387, #380);
#389=PRESENTATION_LAYER_ASSIGNMENT('1','Part [1]',(#371));
#390=MECHANICAL_DESIGN_GEOMETRIC_PRESENTATION_REPRESENTATION('',(#379), #18);
ENDSEC;
END-ISO-10303-21;
