ISO-10303-21;
HEADER;
FILE_DESCRIPTION((''),'2;1');
FILE_NAME('C:/Program Files/Kubotek/KeyCreatorPro.2021.SP0/STEP/SG2080.STP', '2021-02-02T21:06:44',(''), (''), 'KCM Version 2.0.6974.6974', 'KeyCreator Pro', '');
FILE_SCHEMA(('AUTOMOTIVE_DESIGN'));
ENDSEC;
DATA;
#1=PRODUCT_DEFINITION_CONTEXT('',#4,'design');
#2=PRODUCT_CONTEXT('',#4,'mechanical');
#3=APPLICATION_PROTOCOL_DEFINITION('International Standard','automotive_design',2001,#4);
#4=APPLICATION_CONTEXT('automotive design');
#10=DIMENSIONAL_EXPONENTS(1.0,0.0,0.0,0.0,0.0,0.0,0.0);
#11=DIMENSIONAL_EXPONENTS(0.0,0.0,0.0,0.0,0.0,0.0,0.0);
#12=(NAMED_UNIT(#10)LENGTH_UNIT()SI_UNIT(.MILLI.,.METRE.));
#13=(NAMED_UNIT(#11)PLANE_ANGLE_UNIT()SI_UNIT($,.RADIAN.));
#14=(NAMED_UNIT(#11)SOLID_ANGLE_UNIT()SI_UNIT($,.STERADIAN.));
#15=LENGTH_MEASURE_WITH_UNIT(LENGTH_MEASURE(25.4),#12);
#16= (CONVERSION_BASED_UNIT('INCH',#15)LENGTH_UNIT()NAMED_UNIT(#10));
#17=UNCERTAINTY_MEASURE_WITH_UNIT(LENGTH_MEASURE(1.0E-006),#16,'','');
#18=(GEOMETRIC_REPRESENTATION_CONTEXT(3)GLOBAL_UNCERTAINTY_ASSIGNED_CONTEXT((#17))GLOBAL_UNIT_ASSIGNED_CONTEXT((#16,#13,#14))REPRESENTATION_CONTEXT('NONE','WORKSPACE'));
#20=CARTESIAN_POINT('',(0.00000000000000,0.00000000000000,0.00000000000000));
#21=DIRECTION('',(0.00000000000000,0.00000000000000,1.00000000000000));
#22=DIRECTION('',(1.00000000000000,0.00000000000000,0.00000000000000));
#23=AXIS2_PLACEMENT_3D('',#20,#21,#22);
#24=CARTESIAN_POINT('',(2.51005954886420,11.0013480803129,0.133870276290377));
#25=VERTEX_POINT('',#24);
#26=CARTESIAN_POINT('',(2.61612909739693,11.0013480803129,-3.24740234702858E-15));
#27=VERTEX_POINT('',#26);
#28=CARTESIAN_POINT('',(2.66541751504829,11.0013480803129,0.148008958801229));
#29=DIRECTION('',(0.00000000000000,-1.00000000000000,6.12323399573677E-17));
#30=DIRECTION('',(1.00000000000000,0.00000000000000,0.00000000000000));
#31=AXIS2_PLACEMENT_3D('',#28,#29,#30);
#32=CIRCLE('',#31,0.156000000000000);
#33=EDGE_CURVE('',#25,#27,#32,.T.);
#34=ORIENTED_EDGE('',*,*,#33,.T.);
#35=CARTESIAN_POINT('',(2.61612909739693,5.00134808031295,-3.24740234702858E-15));
#36=VERTEX_POINT('',#35);
#37=CARTESIAN_POINT('',(2.61612909739693,5.00134808031295,-3.24740234702858E-15));
#38=DIRECTION('',(0.00000000000000,1.00000000000000,0.00000000000000));
#39=VECTOR('',#38,1.00000000000000);
#40=LINE('',#37,#39);
#41=EDGE_CURVE('',#36,#27,#40,.T.);
#42=ORIENTED_EDGE('',*,*,#41,.F.);
#43=CARTESIAN_POINT('',(2.51005954886420,5.00134808031295,0.133870276290377));
#44=VERTEX_POINT('',#43);
#45=CARTESIAN_POINT('',(2.66541751504829,5.00134808031295,0.148008958801229));
#46=DIRECTION('',(0.00000000000000,-1.00000000000000,6.12323399573677E-17));
#47=DIRECTION('',(1.00000000000000,0.00000000000000,0.00000000000000));
#48=AXIS2_PLACEMENT_3D('',#45,#46,#47);
#49=CIRCLE('',#48,0.156000000000000);
#50=EDGE_CURVE('',#44,#36,#49,.T.);
#51=ORIENTED_EDGE('',*,*,#50,.F.);
#52=CARTESIAN_POINT('',(2.51005954886420,5.00134808031295,0.133870276290377));
#53=DIRECTION('',(0.00000000000000,1.00000000000000,0.00000000000000));
#54=VECTOR('',#53,1.00000000000000);
#55=LINE('',#52,#54);
#56=EDGE_CURVE('',#44,#25,#55,.T.);
#57=ORIENTED_EDGE('',*,*,#56,.T.);
#58=EDGE_LOOP('',(#34,#42,#51,#57));
#59=FACE_OUTER_BOUND('',#58,.T.);
#60=CARTESIAN_POINT('',(2.66541751504829,5.00134808031295,0.148008958801229));
#61=DIRECTION('',(0.00000000000000,1.00000000000000,0.00000000000000));
#62=DIRECTION('',(1.00000000000000,-0.00000000000000,0.00000000000000));
#63=AXIS2_PLACEMENT_3D('',#60,#61,#62);
#64=CYLINDRICAL_SURFACE('',#63,0.156000000000000);
#65=ADVANCED_FACE('',(#59),#64,.T.);
#66=CARTESIAN_POINT('',(2.59350000000000,11.0013480803129,0.248651919687052));
#67=VERTEX_POINT('',#66);
#68=CARTESIAN_POINT('',(2.61612909739693,11.0013480803129,0.00000000000000));
#69=DIRECTION('',(-0.0906325801977850,0.00000000000000,0.995884398615970));
#70=VECTOR('',#69,1.00000000000000);
#71=LINE('',#68,#70);
#72=EDGE_CURVE('',#27,#67,#71,.T.);
#73=ORIENTED_EDGE('',*,*,#72,.T.);
#74=CARTESIAN_POINT('',(2.59350000000000,5.00134808031295,0.248651919687052));
#75=VERTEX_POINT('',#74);
#76=CARTESIAN_POINT('',(2.59350000000000,5.00134808031295,0.248651919687052));
#77=DIRECTION('',(0.00000000000000,1.00000000000000,0.00000000000000));
#78=VECTOR('',#77,1.00000000000000);
#79=LINE('',#76,#78);
#80=EDGE_CURVE('',#75,#67,#79,.T.);
#81=ORIENTED_EDGE('',*,*,#80,.F.);
#82=CARTESIAN_POINT('',(2.61612909739693,5.00134808031295,0.00000000000000));
#83=DIRECTION('',(-0.0906325801977850,0.00000000000000,0.995884398615970));
#84=VECTOR('',#83,1.00000000000000);
#85=LINE('',#82,#84);
#86=EDGE_CURVE('',#36,#75,#85,.T.);
#87=ORIENTED_EDGE('',*,*,#86,.F.);
#88=ORIENTED_EDGE('',*,*,#41,.T.);
#89=EDGE_LOOP('',(#73,#81,#87,#88));
#90=FACE_OUTER_BOUND('',#89,.T.);
#91=CARTESIAN_POINT('',(2.60481454869847,5.00134808031295,0.124325959843524));
#92=DIRECTION('',(0.995884398615970,-0.00000000000000,0.0906325801977850));
#93=DIRECTION('',(0.0906325801977850,-0.00000000000000,-0.995884398615970));
#94=AXIS2_PLACEMENT_3D('',#91,#92,#93);
#95=PLANE('',#94);
#96=ADVANCED_FACE('',(#90),#95,.T.);
#97=CARTESIAN_POINT('',(2.71850000000000,11.0013480803129,0.248651919687052));
#98=VERTEX_POINT('',#97);
#99=CARTESIAN_POINT('',(2.59350000000000,11.0013480803129,0.248651919687052));
#100=DIRECTION('',(1.00000000000000,0.00000000000000,0.00000000000000));
#101=VECTOR('',#100,1.00000000000000);
#102=LINE('',#99,#101);
#103=EDGE_CURVE('',#67,#98,#102,.T.);
#104=ORIENTED_EDGE('',*,*,#103,.T.);
#105=CARTESIAN_POINT('',(2.71850000000000,5.00134808031295,0.248651919687052));
#106=VERTEX_POINT('',#105);
#107=CARTESIAN_POINT('',(2.71850000000000,5.00134808031295,0.248651919687052));
#108=DIRECTION('',(0.00000000000000,1.00000000000000,0.00000000000000));
#109=VECTOR('',#108,1.00000000000000);
#110=LINE('',#107,#109);
#111=EDGE_CURVE('',#106,#98,#110,.T.);
#112=ORIENTED_EDGE('',*,*,#111,.F.);
#113=CARTESIAN_POINT('',(2.59350000000000,5.00134808031295,0.248651919687052));
#114=DIRECTION('',(1.00000000000000,0.00000000000000,0.00000000000000));
#115=VECTOR('',#114,1.00000000000000);
#116=LINE('',#113,#115);
#117=EDGE_CURVE('',#75,#106,#116,.T.);
#118=ORIENTED_EDGE('',*,*,#117,.F.);
#119=ORIENTED_EDGE('',*,*,#80,.T.);
#120=EDGE_LOOP('',(#104,#112,#118,#119));
#121=FACE_OUTER_BOUND('',#120,.T.);
#122=CARTESIAN_POINT('',(2.65600000000000,5.00134808031295,0.248651919687052));
#123=DIRECTION('',(0.00000000000000,0.00000000000000,-1.00000000000000));
#124=DIRECTION('',(-1.00000000000000,-0.00000000000000,-0.00000000000000));
#125=AXIS2_PLACEMENT_3D('',#122,#123,#124);
#126=PLANE('',#125);
#127=ADVANCED_FACE('',(#121),#126,.T.);
#128=CARTESIAN_POINT('',(2.69587090260306,11.0013480803129,-2.63677968348475E-15));
#129=VERTEX_POINT('',#128);
#130=CARTESIAN_POINT('',(2.69587090260306,11.0013480803129,0.00000000000000));
#131=DIRECTION('',(-0.0906325801977794,-0.00000000000000,-0.995884398615970));
#132=VECTOR('',#131,1.00000000000000);
#133=LINE('',#130,#132);
#134=EDGE_CURVE('',#98,#129,#133,.T.);
#135=ORIENTED_EDGE('',*,*,#134,.T.);
#136=CARTESIAN_POINT('',(2.69587090260306,5.00134808031295,-2.63677968348475E-15));
#137=VERTEX_POINT('',#136);
#138=CARTESIAN_POINT('',(2.69587090260306,5.00134808031295,-2.63677968348475E-15));
#139=DIRECTION('',(0.00000000000000,1.00000000000000,0.00000000000000));
#140=VECTOR('',#139,1.00000000000000);
#141=LINE('',#138,#140);
#142=EDGE_CURVE('',#137,#129,#141,.T.);
#143=ORIENTED_EDGE('',*,*,#142,.F.);
#144=CARTESIAN_POINT('',(2.69587090260306,5.00134808031295,0.00000000000000));
#145=DIRECTION('',(0.0906325801977794,0.00000000000000,0.995884398615970));
#146=VECTOR('',#145,1.00000000000000);
#147=LINE('',#144,#146);
#148=EDGE_CURVE('',#137,#106,#147,.T.);
#149=ORIENTED_EDGE('',*,*,#148,.T.);
#150=ORIENTED_EDGE('',*,*,#111,.T.);
#151=EDGE_LOOP('',(#135,#143,#149,#150));
#152=FACE_OUTER_BOUND('',#151,.T.);
#153=CARTESIAN_POINT('',(2.70718545130153,5.00134808031295,0.124325959843524));
#154=DIRECTION('',(-0.995884398615970,0.00000000000000,0.0906325801977794));
#155=DIRECTION('',(0.0906325801977794,0.00000000000000,0.995884398615970));
#156=AXIS2_PLACEMENT_3D('',#153,#154,#155);
#157=PLANE('',#156);
#158=ADVANCED_FACE('',(#152),#157,.T.);
#159=CARTESIAN_POINT('',(2.80194045113580,11.0013480803129,0.133870276290376));
#160=VERTEX_POINT('',#159);
#161=CARTESIAN_POINT('',(2.64658248495170,11.0013480803129,0.148008958801230));
#162=DIRECTION('',(0.00000000000000,-1.00000000000000,6.12323399573677E-17));
#163=DIRECTION('',(1.00000000000000,0.00000000000000,0.00000000000000));
#164=AXIS2_PLACEMENT_3D('',#161,#162,#163);
#165=CIRCLE('',#164,0.156000000000000);
#166=EDGE_CURVE('',#129,#160,#165,.T.);
#167=ORIENTED_EDGE('',*,*,#166,.T.);
#168=CARTESIAN_POINT('',(2.80194045113580,5.00134808031295,0.133870276290376));
#169=VERTEX_POINT('',#168);
#170=CARTESIAN_POINT('',(2.80194045113580,5.00134808031295,0.133870276290376));
#171=DIRECTION('',(0.00000000000000,1.00000000000000,0.00000000000000));
#172=VECTOR('',#171,1.00000000000000);
#173=LINE('',#170,#172);
#174=EDGE_CURVE('',#169,#160,#173,.T.);
#175=ORIENTED_EDGE('',*,*,#174,.F.);
#176=CARTESIAN_POINT('',(2.64658248495170,5.00134808031295,0.148008958801230));
#177=DIRECTION('',(0.00000000000000,-1.00000000000000,6.12323399573677E-17));
#178=DIRECTION('',(1.00000000000000,0.00000000000000,0.00000000000000));
#179=AXIS2_PLACEMENT_3D('',#176,#177,#178);
#180=CIRCLE('',#179,0.156000000000000);
#181=EDGE_CURVE('',#137,#169,#180,.T.);
#182=ORIENTED_EDGE('',*,*,#181,.F.);
#183=ORIENTED_EDGE('',*,*,#142,.T.);
#184=EDGE_LOOP('',(#167,#175,#182,#183));
#185=FACE_OUTER_BOUND('',#184,.T.);
#186=CARTESIAN_POINT('',(2.64658248495170,5.00134808031295,0.148008958801230));
#187=DIRECTION('',(0.00000000000000,1.00000000000000,0.00000000000000));
#188=DIRECTION('',(1.00000000000000,-0.00000000000000,0.00000000000000));
#189=AXIS2_PLACEMENT_3D('',#186,#187,#188);
#190=CYLINDRICAL_SURFACE('',#189,0.156000000000000);
#191=ADVANCED_FACE('',(#185),#190,.T.);
#192=CARTESIAN_POINT('',(2.80912928965916,11.0013480803129,0.212862313303600));
#193=VERTEX_POINT('',#192);
#194=CARTESIAN_POINT('',(2.80194045113580,11.0013480803129,0.133870276290377));
#195=DIRECTION('',(0.0906325801977925,0.00000000000000,0.995884398615969));
#196=VECTOR('',#195,1.00000000000000);
#197=LINE('',#194,#196);
#198=EDGE_CURVE('',#160,#193,#197,.T.);
#199=ORIENTED_EDGE('',*,*,#198,.T.);
#200=CARTESIAN_POINT('',(2.80912928965916,5.00134808031295,0.212862313303600));
#201=VERTEX_POINT('',#200);
#202=CARTESIAN_POINT('',(2.80912928965916,5.00134808031295,0.212862313303600));
#203=DIRECTION('',(0.00000000000000,1.00000000000000,0.00000000000000));
#204=VECTOR('',#203,1.00000000000000);
#205=LINE('',#202,#204);
#206=EDGE_CURVE('',#201,#193,#205,.T.);
#207=ORIENTED_EDGE('',*,*,#206,.F.);
#208=CARTESIAN_POINT('',(2.80194045113580,5.00134808031295,0.133870276290377));
#209=DIRECTION('',(0.0906325801977925,0.00000000000000,0.995884398615969));
#210=VECTOR('',#209,1.00000000000000);
#211=LINE('',#208,#210);
#212=EDGE_CURVE('',#169,#201,#211,.T.);
#213=ORIENTED_EDGE('',*,*,#212,.F.);
#214=ORIENTED_EDGE('',*,*,#174,.T.);
#215=EDGE_LOOP('',(#199,#207,#213,#214));
#216=FACE_OUTER_BOUND('',#215,.T.);
#217=CARTESIAN_POINT('',(2.80553487039748,5.00134808031295,0.173366294796988));
#218=DIRECTION('',(0.995884398615969,0.00000000000000,-0.0906325801977925));
#219=DIRECTION('',(-0.0906325801977925,-0.00000000000000,-0.995884398615969));
#220=AXIS2_PLACEMENT_3D('',#217,#218,#219);
#221=PLANE('',#220);
#222=ADVANCED_FACE('',(#216),#221,.T.);
#223=CARTESIAN_POINT('',(2.50287071034084,11.0013480803129,0.212862313303598));
#224=VERTEX_POINT('',#223);
#225=CARTESIAN_POINT('',(2.65600000000000,11.0013480803129,0.242651919687051));
#226=DIRECTION('',(0.00000000000000,-1.00000000000000,6.12323399573677E-17));
#227=DIRECTION('',(1.00000000000000,0.00000000000000,0.00000000000000));
#228=AXIS2_PLACEMENT_3D('',#225,#226,#227);
#229=CIRCLE('',#228,0.156000000000000);
#230=EDGE_CURVE('',#193,#224,#229,.T.);
#231=ORIENTED_EDGE('',*,*,#230,.T.);
#232=CARTESIAN_POINT('',(2.50287071034084,5.00134808031295,0.212862313303598));
#233=VERTEX_POINT('',#232);
#234=CARTESIAN_POINT('',(2.50287071034084,5.00134808031295,0.212862313303598));
#235=DIRECTION('',(0.00000000000000,1.00000000000000,0.00000000000000));
#236=VECTOR('',#235,1.00000000000000);
#237=LINE('',#234,#236);
#238=EDGE_CURVE('',#233,#224,#237,.T.);
#239=ORIENTED_EDGE('',*,*,#238,.F.);
#240=CARTESIAN_POINT('',(2.65600000000000,5.00134808031295,0.242651919687051));
#241=DIRECTION('',(0.00000000000000,-1.00000000000000,6.12323399573677E-17));
#242=DIRECTION('',(1.00000000000000,0.00000000000000,0.00000000000000));
#243=AXIS2_PLACEMENT_3D('',#240,#241,#242);
#244=CIRCLE('',#243,0.156000000000000);
#245=EDGE_CURVE('',#201,#233,#244,.T.);
#246=ORIENTED_EDGE('',*,*,#245,.F.);
#247=ORIENTED_EDGE('',*,*,#206,.T.);
#248=EDGE_LOOP('',(#231,#239,#246,#247));
#249=FACE_OUTER_BOUND('',#248,.T.);
#250=CARTESIAN_POINT('',(2.65600000000000,5.00134808031295,0.242651919687051));
#251=DIRECTION('',(0.00000000000000,1.00000000000000,0.00000000000000));
#252=DIRECTION('',(0.00000000000000,0.00000000000000,-1.00000000000000));
#253=AXIS2_PLACEMENT_3D('',#250,#251,#252);
#254=CYLINDRICAL_SURFACE('',#253,0.156000000000000);
#255=ADVANCED_FACE('',(#249),#254,.T.);
#256=CARTESIAN_POINT('',(2.51005954886420,11.0013480803129,0.133870276290377));
#257=DIRECTION('',(0.0906325801977779,0.00000000000000,-0.995884398615971));
#258=VECTOR('',#257,1.00000000000000);
#259=LINE('',#256,#258);
#260=EDGE_CURVE('',#224,#25,#259,.T.);
#261=ORIENTED_EDGE('',*,*,#260,.T.);
#262=ORIENTED_EDGE('',*,*,#56,.F.);
#263=CARTESIAN_POINT('',(2.51005954886420,5.00134808031295,0.133870276290377));
#264=DIRECTION('',(-0.0906325801977779,0.00000000000000,0.995884398615971));
#265=VECTOR('',#264,1.00000000000000);
#266=LINE('',#263,#265);
#267=EDGE_CURVE('',#44,#233,#266,.T.);
#268=ORIENTED_EDGE('',*,*,#267,.T.);
#269=ORIENTED_EDGE('',*,*,#238,.T.);
#270=EDGE_LOOP('',(#261,#262,#268,#269));
#271=FACE_OUTER_BOUND('',#270,.T.);
#272=CARTESIAN_POINT('',(2.50646512960252,5.00134808031295,0.173366294796988));
#273=DIRECTION('',(-0.995884398615971,0.00000000000000,-0.0906325801977779));
#274=DIRECTION('',(-0.0906325801977779,0.00000000000000,0.995884398615971));
#275=AXIS2_PLACEMENT_3D('',#272,#273,#274);
#276=PLANE('',#275);
#277=ADVANCED_FACE('',(#271),#276,.T.);
#278=ORIENTED_EDGE('',*,*,#33,.F.);
#279=ORIENTED_EDGE('',*,*,#260,.F.);
#280=ORIENTED_EDGE('',*,*,#230,.F.);
#281=ORIENTED_EDGE('',*,*,#198,.F.);
#282=ORIENTED_EDGE('',*,*,#166,.F.);
#283=ORIENTED_EDGE('',*,*,#134,.F.);
#284=ORIENTED_EDGE('',*,*,#103,.F.);
#285=ORIENTED_EDGE('',*,*,#72,.F.);
#286=EDGE_LOOP('',(#278,#279,#280,#281,#282,#283,#284,#285));
#287=FACE_OUTER_BOUND('',#286,.T.);
#288=CARTESIAN_POINT('',(2.50781429487239,11.0013480803129,0.158541464250531));
#289=DIRECTION('',(0.00000000000000,1.00000000000000,0.00000000000000));
#290=DIRECTION('',(-1.00000000000000,0.00000000000000,0.00000000000000));
#291=AXIS2_PLACEMENT_3D('',#288,#289,#290);
#292=PLANE('',#291);
#293=ADVANCED_FACE('',(#287),#292,.T.);
#294=ORIENTED_EDGE('',*,*,#267,.F.);
#295=ORIENTED_EDGE('',*,*,#50,.T.);
#296=ORIENTED_EDGE('',*,*,#86,.T.);
#297=ORIENTED_EDGE('',*,*,#117,.T.);
#298=ORIENTED_EDGE('',*,*,#148,.F.);
#299=ORIENTED_EDGE('',*,*,#181,.T.);
#300=ORIENTED_EDGE('',*,*,#212,.T.);
#301=ORIENTED_EDGE('',*,*,#245,.T.);
#302=EDGE_LOOP('',(#294,#295,#296,#297,#298,#299,#300,#301));
#303=FACE_OUTER_BOUND('',#302,.T.);
#304=CARTESIAN_POINT('',(2.50781429487239,5.00134808031295,0.158541464250531));
#305=DIRECTION('',(-0.00000000000000,1.00000000000000,-0.00000000000000));
#306=DIRECTION('',(-1.00000000000000,-0.00000000000000,0.00000000000000));
#307=AXIS2_PLACEMENT_3D('',#304,#305,#306);
#308=PLANE('',#307);
#309=ADVANCED_FACE('',(#303),#308,.F.);
#310=CLOSED_SHELL('',(#65,#96,#127,#158,#191,#222,#255,#277,#293,#309));
#311=MANIFOLD_SOLID_BREP('',#310);
#312=COLOUR_RGB('',1.00000000000000,0.00000000000000,0.00000000000000);
#313=FILL_AREA_STYLE_COLOUR('',#312);
#314=FILL_AREA_STYLE('',(#313));
#315=SURFACE_STYLE_FILL_AREA(#314);
#316=SURFACE_SIDE_STYLE('',(#315));
#317=SURFACE_STYLE_USAGE(.BOTH.,#316);
#318=PRESENTATION_STYLE_ASSIGNMENT((#317));
#319=STYLED_ITEM('',(#318),#311);
#320=ADVANCED_BREP_SHAPE_REPRESENTATION('',(#311,#23),#18);
#321=PRODUCT('', '', ' ',(#2));
#322=PRODUCT_DEFINITION_FORMATION_WITH_SPECIFIED_SOURCE (' ', ' ', #321, .NOT_KNOWN.) ;
#323=PRODUCT_CATEGORY('part','') ;
#324=PRODUCT_RELATED_PRODUCT_CATEGORY('detail', ' ', (#321)) ;
#325=PRODUCT_CATEGORY_RELATIONSHIP(' ', ' ', #323, #324);
#326=PRODUCT_DEFINITION('', '', #322, #1);
#327=PRODUCT_DEFINITION_SHAPE('NONE', 'NONE', #326);
#328=SHAPE_DEFINITION_REPRESENTATION(#327, #320);
#329=PRESENTATION_LAYER_ASSIGNMENT('1','Unnamed [1]',(#311));
#330=MECHANICAL_DESIGN_GEOMETRIC_PRESENTATION_REPRESENTATION('',(#319), #18);
ENDSEC;
END-ISO-10303-21;
