ISO-10303-21;
HEADER;
FILE_DESCRIPTION(('', 'CAx-IF Rec.Pracs.---Representation and Presentation of Product Manufacturing Information (PMI)---4.0---2014-10-13'),'2;1');
FILE_NAME('K:/STP PART FILES/SG2075.STP', '2021-08-05T12:19:09',(''), (''), 'Kubotek Kosmos Version 3.0.10279.10279', 'KeyCreator Pro', '');
FILE_SCHEMA(('AP242_MANAGED_MODEL_BASED_3D_ENGINEERING_MIM_LF  { 1 0 10303 442 1 1 4 }'));
ENDSEC;
DATA;
#1=PRODUCT_DEFINITION_CONTEXT('',#4,'design');
#2=PRODUCT_CONTEXT('',#4,'mechanical');
#3=APPLICATION_PROTOCOL_DEFINITION('international standard','ap242_managed_model_based_3d_engineering',2011,#4);
#4=APPLICATION_CONTEXT('managed model based 3d engineering');
#10=DIMENSIONAL_EXPONENTS(1.0,0.0,0.0,0.0,0.0,0.0,0.0);
#11=DIMENSIONAL_EXPONENTS(0.0,0.0,0.0,0.0,0.0,0.0,0.0);
#12=(LENGTH_UNIT()NAMED_UNIT(*)SI_UNIT(.MILLI.,.METRE.));
#13=(NAMED_UNIT(*)PLANE_ANGLE_UNIT()SI_UNIT($,.RADIAN.));
#14=(NAMED_UNIT(*)SI_UNIT($,.STERADIAN.)SOLID_ANGLE_UNIT());
#15=LENGTH_MEASURE_WITH_UNIT(LENGTH_MEASURE(25.4),#12);
#16= (CONVERSION_BASED_UNIT('INCH',#15)LENGTH_UNIT()NAMED_UNIT(#10));
#17=UNCERTAINTY_MEASURE_WITH_UNIT(LENGTH_MEASURE(1.0E-006),#16,'','');
#18=(GEOMETRIC_REPRESENTATION_CONTEXT(3)GLOBAL_UNCERTAINTY_ASSIGNED_CONTEXT((#17))GLOBAL_UNIT_ASSIGNED_CONTEXT((#16,#13,#14))REPRESENTATION_CONTEXT('NONE','WORKSPACE'));
#20=CARTESIAN_POINT('',(0.00000000000000,0.00000000000000,0.00000000000000));
#21=DIRECTION('',(0.00000000000000,0.00000000000000,1.00000000000000));
#22=DIRECTION('',(1.00000000000000,0.00000000000000,0.00000000000000));
#23=AXIS2_PLACEMENT_3D('',#20,#21,#22);
#24=CARTESIAN_POINT('',(-0.0199999999999996,3.00000000000000,0.0399999999999999));
#25=VERTEX_POINT('',#24);
#26=CARTESIAN_POINT('',(-0.605000000000000,3.00000000000000,0.0399999999999999));
#27=VERTEX_POINT('',#26);
#28=CARTESIAN_POINT('',(-0.605000000000000,3.00000000000000,0.0399999999999999));
#29=DIRECTION('',(-1.00000000000000,-0.00000000000000,-0.00000000000000));
#30=VECTOR('',#29,1.00000000000000);
#31=LINE('',#28,#30);
#32=EDGE_CURVE('',#25,#27,#31,.T.);
#33=ORIENTED_EDGE('',*,*,#32,.T.);
#34=CARTESIAN_POINT('',(-0.605000000000000,-3.00000000000000,0.0400000000000002));
#35=VERTEX_POINT('',#34);
#36=CARTESIAN_POINT('',(-0.605000000000000,2.44929359829470E-18,0.0400000000000000));
#37=DIRECTION('',(0.00000000000000,1.00000000000000,-6.01370805005293E-17));
#38=VECTOR('',#37,1.00000000000000);
#39=LINE('',#36,#38);
#40=EDGE_CURVE('',#35,#27,#39,.T.);
#41=ORIENTED_EDGE('',*,*,#40,.F.);
#42=CARTESIAN_POINT('',(-0.0199999999999996,-3.00000000000000,0.0400000000000002));
#43=VERTEX_POINT('',#42);
#44=CARTESIAN_POINT('',(-0.605000000000000,-3.00000000000000,0.0400000000000002));
#45=DIRECTION('',(1.00000000000000,0.00000000000000,0.00000000000000));
#46=VECTOR('',#45,1.00000000000000);
#47=LINE('',#44,#46);
#48=EDGE_CURVE('',#35,#43,#47,.T.);
#49=ORIENTED_EDGE('',*,*,#48,.T.);
#50=CARTESIAN_POINT('',(-0.0199999999999996,2.44929359829470E-18,0.0400000000000000));
#51=DIRECTION('',(0.00000000000000,1.00000000000000,-6.01370805005293E-17));
#52=VECTOR('',#51,1.00000000000000);
#53=LINE('',#50,#52);
#54=EDGE_CURVE('',#43,#25,#53,.T.);
#55=ORIENTED_EDGE('',*,*,#54,.T.);
#56=EDGE_LOOP('',(#33,#41,#49,#55));
#57=FACE_OUTER_BOUND('',#56,.T.);
#58=CARTESIAN_POINT('',(-0.312500000000000,2.44929359829470E-18,0.0400000000000000));
#59=DIRECTION('',(-0.00000000000000,6.01370805005293E-17,1.00000000000000));
#60=DIRECTION('',(1.00000000000000,0.00000000000000,0.00000000000000));
#61=AXIS2_PLACEMENT_3D('',#58,#59,#60);
#62=PLANE('',#61);
#63=ADVANCED_FACE('',(#57),#62,.T.);
#64=CARTESIAN_POINT('',(-0.605000000000000,3.00000000000000,-1.63064006741820E-16));
#65=VERTEX_POINT('',#64);
#66=CARTESIAN_POINT('',(-0.605000000000000,3.00000000000000,0.0199999999999998));
#67=DIRECTION('',(0.00000000000000,-1.00000000000000,6.12323399573677E-17));
#68=DIRECTION('',(1.00000000000000,0.00000000000000,0.00000000000000));
#69=AXIS2_PLACEMENT_3D('',#66,#67,#68);
#70=CIRCLE('',#69,0.0200000000000000);
#71=EDGE_CURVE('',#27,#65,#70,.T.);
#72=ORIENTED_EDGE('',*,*,#71,.T.);
#73=CARTESIAN_POINT('',(-0.605000000000000,-3.00000000000000,1.97758476261356E-16));
#74=VERTEX_POINT('',#73);
#75=CARTESIAN_POINT('',(-0.605000000000000,1.15555796663234E-33,1.73472347597681E-17));
#76=DIRECTION('',(0.00000000000000,-1.00000000000000,6.01370805005293E-17));
#77=VECTOR('',#76,1.00000000000000);
#78=LINE('',#75,#77);
#79=EDGE_CURVE('',#65,#74,#78,.T.);
#80=ORIENTED_EDGE('',*,*,#79,.T.);
#81=CARTESIAN_POINT('',(-0.605000000000000,-3.00000000000000,0.0200000000000002));
#82=DIRECTION('',(0.00000000000000,1.00000000000000,-6.12323399573677E-17));
#83=DIRECTION('',(1.00000000000000,0.00000000000000,0.00000000000000));
#84=AXIS2_PLACEMENT_3D('',#81,#82,#83);
#85=CIRCLE('',#84,0.0200000000000000);
#86=EDGE_CURVE('',#74,#35,#85,.T.);
#87=ORIENTED_EDGE('',*,*,#86,.T.);
#88=ORIENTED_EDGE('',*,*,#40,.T.);
#89=EDGE_LOOP('',(#72,#80,#87,#88));
#90=FACE_OUTER_BOUND('',#89,.T.);
#91=CARTESIAN_POINT('',(-0.605000000000000,1.22464679914735E-18,0.0200000000000000));
#92=DIRECTION('',(0.00000000000000,1.00000000000000,-6.01370805005293E-17));
#93=DIRECTION('',(1.00000000000000,0.00000000000000,0.00000000000000));
#94=AXIS2_PLACEMENT_3D('',#91,#92,#93);
#95=CYLINDRICAL_SURFACE('',#94,0.0200000000000000);
#96=ADVANCED_FACE('',(#90),#95,.T.);
#97=CARTESIAN_POINT('',(0.605000000000000,3.00000000000000,-1.63064006741820E-16));
#98=VERTEX_POINT('',#97);
#99=CARTESIAN_POINT('',(-0.605000000000000,3.00000000000000,-1.80411241501588E-16));
#100=DIRECTION('',(1.00000000000000,0.00000000000000,0.00000000000000));
#101=VECTOR('',#100,1.00000000000000);
#102=LINE('',#99,#101);
#103=EDGE_CURVE('',#65,#98,#102,.T.);
#104=ORIENTED_EDGE('',*,*,#103,.T.);
#105=CARTESIAN_POINT('',(0.605000000000000,-3.00000000000000,1.97758476261356E-16));
#106=VERTEX_POINT('',#105);
#107=CARTESIAN_POINT('',(0.605000000000000,1.15555796663234E-33,1.73472347597681E-17));
#108=DIRECTION('',(0.00000000000000,1.00000000000000,-6.01370805005293E-17));
#109=VECTOR('',#108,1.00000000000000);
#110=LINE('',#107,#109);
#111=EDGE_CURVE('',#106,#98,#110,.T.);
#112=ORIENTED_EDGE('',*,*,#111,.F.);
#113=CARTESIAN_POINT('',(-0.605000000000000,-3.00000000000000,1.80411241501588E-16));
#114=DIRECTION('',(-1.00000000000000,-0.00000000000000,-0.00000000000000));
#115=VECTOR('',#114,1.00000000000000);
#116=LINE('',#113,#115);
#117=EDGE_CURVE('',#106,#74,#116,.T.);
#118=ORIENTED_EDGE('',*,*,#117,.T.);
#119=ORIENTED_EDGE('',*,*,#79,.F.);
#120=EDGE_LOOP('',(#104,#112,#118,#119));
#121=FACE_OUTER_BOUND('',#120,.T.);
#122=CARTESIAN_POINT('',(0.00000000000000,0.00000000000000,0.00000000000000));
#123=DIRECTION('',(0.00000000000000,-6.01370805005293E-17,-1.00000000000000));
#124=DIRECTION('',(-1.00000000000000,-0.00000000000000,-0.00000000000000));
#125=AXIS2_PLACEMENT_3D('',#122,#123,#124);
#126=PLANE('',#125);
#127=ADVANCED_FACE('',(#121),#126,.T.);
#128=CARTESIAN_POINT('',(0.605000000000000,3.00000000000000,0.0399999999999998));
#129=VERTEX_POINT('',#128);
#130=CARTESIAN_POINT('',(0.605000000000000,3.00000000000000,0.0199999999999998));
#131=DIRECTION('',(0.00000000000000,-1.00000000000000,6.12323399573677E-17));
#132=DIRECTION('',(1.00000000000000,0.00000000000000,0.00000000000000));
#133=AXIS2_PLACEMENT_3D('',#130,#131,#132);
#134=CIRCLE('',#133,0.0200000000000000);
#135=EDGE_CURVE('',#98,#129,#134,.T.);
#136=ORIENTED_EDGE('',*,*,#135,.T.);
#137=CARTESIAN_POINT('',(0.605000000000000,-3.00000000000000,0.0400000000000002));
#138=VERTEX_POINT('',#137);
#139=CARTESIAN_POINT('',(0.605000000000000,2.44929359829471E-18,0.0400000000000000));
#140=DIRECTION('',(0.00000000000000,-1.00000000000000,6.01370805005293E-17));
#141=VECTOR('',#140,1.00000000000000);
#142=LINE('',#139,#141);
#143=EDGE_CURVE('',#129,#138,#142,.T.);
#144=ORIENTED_EDGE('',*,*,#143,.T.);
#145=CARTESIAN_POINT('',(0.605000000000000,-3.00000000000000,0.0200000000000002));
#146=DIRECTION('',(0.00000000000000,1.00000000000000,-6.12323399573677E-17));
#147=DIRECTION('',(1.00000000000000,0.00000000000000,0.00000000000000));
#148=AXIS2_PLACEMENT_3D('',#145,#146,#147);
#149=CIRCLE('',#148,0.0200000000000000);
#150=EDGE_CURVE('',#138,#106,#149,.T.);
#151=ORIENTED_EDGE('',*,*,#150,.T.);
#152=ORIENTED_EDGE('',*,*,#111,.T.);
#153=EDGE_LOOP('',(#136,#144,#151,#152));
#154=FACE_OUTER_BOUND('',#153,.T.);
#155=CARTESIAN_POINT('',(0.605000000000000,1.22464679914735E-18,0.0200000000000000));
#156=DIRECTION('',(0.00000000000000,1.00000000000000,-6.01370805005293E-17));
#157=DIRECTION('',(-1.00000000000000,0.00000000000000,0.00000000000000));
#158=AXIS2_PLACEMENT_3D('',#155,#156,#157);
#159=CYLINDRICAL_SURFACE('',#158,0.0200000000000000);
#160=ADVANCED_FACE('',(#154),#159,.T.);
#161=CARTESIAN_POINT('',(0.0199999999999996,3.00000000000000,0.0399999999999999));
#162=VERTEX_POINT('',#161);
#163=CARTESIAN_POINT('',(0.0199999999999996,3.00000000000000,0.0399999999999999));
#164=DIRECTION('',(-1.00000000000000,-0.00000000000000,-0.00000000000000));
#165=VECTOR('',#164,1.00000000000000);
#166=LINE('',#163,#165);
#167=EDGE_CURVE('',#129,#162,#166,.T.);
#168=ORIENTED_EDGE('',*,*,#167,.T.);
#169=CARTESIAN_POINT('',(0.0199999999999996,-3.00000000000000,0.0400000000000002));
#170=VERTEX_POINT('',#169);
#171=CARTESIAN_POINT('',(0.0199999999999996,2.44929359829470E-18,0.0400000000000000));
#172=DIRECTION('',(0.00000000000000,1.00000000000000,-6.01370805005293E-17));
#173=VECTOR('',#172,1.00000000000000);
#174=LINE('',#171,#173);
#175=EDGE_CURVE('',#170,#162,#174,.T.);
#176=ORIENTED_EDGE('',*,*,#175,.F.);
#177=CARTESIAN_POINT('',(0.0199999999999996,-3.00000000000000,0.0400000000000002));
#178=DIRECTION('',(1.00000000000000,0.00000000000000,0.00000000000000));
#179=VECTOR('',#178,1.00000000000000);
#180=LINE('',#177,#179);
#181=EDGE_CURVE('',#170,#138,#180,.T.);
#182=ORIENTED_EDGE('',*,*,#181,.T.);
#183=ORIENTED_EDGE('',*,*,#143,.F.);
#184=EDGE_LOOP('',(#168,#176,#182,#183));
#185=FACE_OUTER_BOUND('',#184,.T.);
#186=CARTESIAN_POINT('',(0.312500000000000,2.44929359829470E-18,0.0400000000000000));
#187=DIRECTION('',(-0.00000000000000,6.01370805005293E-17,1.00000000000000));
#188=DIRECTION('',(1.00000000000000,0.00000000000000,0.00000000000000));
#189=AXIS2_PLACEMENT_3D('',#186,#187,#188);
#190=PLANE('',#189);
#191=ADVANCED_FACE('',(#185),#190,.T.);
#192=CARTESIAN_POINT('',(0.0199999999999996,3.00000000000000,0.0799999999999999));
#193=VERTEX_POINT('',#192);
#194=CARTESIAN_POINT('',(0.0199999999999996,3.00000000000000,0.0399999999999999));
#195=DIRECTION('',(0.00000000000000,6.12323399573675E-17,1.00000000000000));
#196=VECTOR('',#195,1.00000000000000);
#197=LINE('',#194,#196);
#198=EDGE_CURVE('',#162,#193,#197,.T.);
#199=ORIENTED_EDGE('',*,*,#198,.T.);
#200=CARTESIAN_POINT('',(0.0199999999999996,-3.00000000000000,0.0800000000000003));
#201=VERTEX_POINT('',#200);
#202=CARTESIAN_POINT('',(0.0199999999999996,4.89858719658940E-18,0.0800000000000001));
#203=DIRECTION('',(0.00000000000000,-1.00000000000000,6.01370805005293E-17));
#204=VECTOR('',#203,1.00000000000000);
#205=LINE('',#202,#204);
#206=EDGE_CURVE('',#193,#201,#205,.T.);
#207=ORIENTED_EDGE('',*,*,#206,.T.);
#208=CARTESIAN_POINT('',(0.0199999999999996,-3.00000000000000,0.0400000000000002));
#209=DIRECTION('',(-0.00000000000000,-6.12323399573675E-17,-1.00000000000000));
#210=VECTOR('',#209,1.00000000000000);
#211=LINE('',#208,#210);
#212=EDGE_CURVE('',#201,#170,#211,.T.);
#213=ORIENTED_EDGE('',*,*,#212,.T.);
#214=ORIENTED_EDGE('',*,*,#175,.T.);
#215=EDGE_LOOP('',(#199,#207,#213,#214));
#216=FACE_OUTER_BOUND('',#215,.T.);
#217=CARTESIAN_POINT('',(0.0199999999999996,3.67394039744205E-18,0.0600000000000001));
#218=DIRECTION('',(1.00000000000000,-0.00000000000000,0.00000000000000));
#219=DIRECTION('',(-0.00000000000000,-6.12323399573675E-17,-1.00000000000000));
#220=AXIS2_PLACEMENT_3D('',#217,#218,#219);
#221=PLANE('',#220);
#222=ADVANCED_FACE('',(#216),#221,.T.);
#223=CARTESIAN_POINT('',(0.529316239316240,3.00000000000000,0.0600116916341741));
#224=VERTEX_POINT('',#223);
#225=CARTESIAN_POINT('',(0.0199999999999996,3.00000000000000,0.0799999999999999));
#226=DIRECTION('',(0.999230788590756,-2.40123784991381E-18,-0.0392151900708942));
#227=VECTOR('',#226,1.00000000000000);
#228=LINE('',#225,#227);
#229=EDGE_CURVE('',#193,#224,#228,.T.);
#230=ORIENTED_EDGE('',*,*,#229,.T.);
#231=CARTESIAN_POINT('',(0.529316239316240,-3.00000000000000,0.0600116916341744));
#232=VERTEX_POINT('',#231);
#233=CARTESIAN_POINT('',(0.529316239316240,3.67465630356047E-18,0.0600116916341742));
#234=DIRECTION('',(0.00000000000000,1.00000000000000,-6.01370805005293E-17));
#235=VECTOR('',#234,1.00000000000000);
#236=LINE('',#233,#235);
#237=EDGE_CURVE('',#232,#224,#236,.T.);
#238=ORIENTED_EDGE('',*,*,#237,.F.);
#239=CARTESIAN_POINT('',(0.0199999999999996,-3.00000000000000,0.0800000000000003));
#240=DIRECTION('',(-0.999230788590756,2.40123784991381E-18,0.0392151900708942));
#241=VECTOR('',#240,1.00000000000000);
#242=LINE('',#239,#241);
#243=EDGE_CURVE('',#232,#201,#242,.T.);
#244=ORIENTED_EDGE('',*,*,#243,.T.);
#245=ORIENTED_EDGE('',*,*,#206,.F.);
#246=EDGE_LOOP('',(#230,#238,#244,#245));
#247=FACE_OUTER_BOUND('',#246,.T.);
#248=CARTESIAN_POINT('',(0.274658119658120,4.28662175007495E-18,0.0700058458170871));
#249=DIRECTION('',(-0.0392151900708942,-6.00908223720897E-17,-0.999230788590756));
#250=DIRECTION('',(-0.999230788590756,2.40123784991381E-18,0.0392151900708942));
#251=AXIS2_PLACEMENT_3D('',#248,#249,#250);
#252=PLANE('',#251);
#253=ADVANCED_FACE('',(#247),#252,.T.);
#254=CARTESIAN_POINT('',(0.530683760683761,3.00000000000000,0.0999883083658257));
#255=VERTEX_POINT('',#254);
#256=CARTESIAN_POINT('',(0.530000000000000,3.00000000000000,0.0799999999999999));
#257=DIRECTION('',(0.00000000000000,-1.00000000000000,6.12323399573677E-17));
#258=DIRECTION('',(1.00000000000000,0.00000000000000,0.00000000000000));
#259=AXIS2_PLACEMENT_3D('',#256,#257,#258);
#260=CIRCLE('',#259,0.0200000000000000);
#261=EDGE_CURVE('',#224,#255,#260,.T.);
#262=ORIENTED_EDGE('',*,*,#261,.T.);
#263=CARTESIAN_POINT('',(0.530683760683761,-3.00000000000000,0.0999883083658261));
#264=VERTEX_POINT('',#263);
#265=CARTESIAN_POINT('',(0.530683760683761,6.12251808961836E-18,0.0999883083658259));
#266=DIRECTION('',(0.00000000000000,-1.00000000000000,6.01370805005293E-17));
#267=VECTOR('',#266,1.00000000000000);
#268=LINE('',#265,#267);
#269=EDGE_CURVE('',#255,#264,#268,.T.);
#270=ORIENTED_EDGE('',*,*,#269,.T.);
#271=CARTESIAN_POINT('',(0.530000000000000,-3.00000000000000,0.0800000000000003));
#272=DIRECTION('',(0.00000000000000,1.00000000000000,-6.12323399573677E-17));
#273=DIRECTION('',(1.00000000000000,0.00000000000000,0.00000000000000));
#274=AXIS2_PLACEMENT_3D('',#271,#272,#273);
#275=CIRCLE('',#274,0.0200000000000000);
#276=EDGE_CURVE('',#264,#232,#275,.T.);
#277=ORIENTED_EDGE('',*,*,#276,.T.);
#278=ORIENTED_EDGE('',*,*,#237,.T.);
#279=EDGE_LOOP('',(#262,#270,#277,#278));
#280=FACE_OUTER_BOUND('',#279,.T.);
#281=CARTESIAN_POINT('',(0.530000000000000,4.89858719658942E-18,0.0800000000000001));
#282=DIRECTION('',(0.00000000000000,1.00000000000000,-6.01370805005293E-17));
#283=DIRECTION('',(-0.999415418291292,2.05596856412049E-18,0.0341880341880311));
#284=AXIS2_PLACEMENT_3D('',#281,#282,#283);
#285=CYLINDRICAL_SURFACE('',#284,0.0200000000000000);
#286=ADVANCED_FACE('',(#280),#285,.T.);
#287=CARTESIAN_POINT('',(0.0213675213675264,3.00000000000000,0.119976616731656));
#288=VERTEX_POINT('',#287);
#289=CARTESIAN_POINT('',(0.530683760683761,3.00000000000000,0.0999883083658258));
#290=DIRECTION('',(-0.999230788590755,-4.85912423229045E-18,0.0392151900709025));
#291=VECTOR('',#290,1.00000000000000);
#292=LINE('',#289,#291);
#293=EDGE_CURVE('',#255,#288,#292,.T.);
#294=ORIENTED_EDGE('',*,*,#293,.T.);
#295=CARTESIAN_POINT('',(0.0213675213675264,-3.00000000000000,0.119976616731656));
#296=VERTEX_POINT('',#295);
#297=CARTESIAN_POINT('',(0.0213675213675264,3.64578207565820E-18,0.119976616731656));
#298=DIRECTION('',(0.00000000000000,1.00000000000000,-6.01370805005293E-17));
#299=VECTOR('',#298,1.00000000000000);
#300=LINE('',#297,#299);
#301=EDGE_CURVE('',#296,#288,#300,.T.);
#302=ORIENTED_EDGE('',*,*,#301,.F.);
#303=CARTESIAN_POINT('',(0.530683760683761,-3.00000000000000,0.0999883083658261));
#304=DIRECTION('',(0.999230788590755,4.85912423229045E-18,-0.0392151900709025));
#305=VECTOR('',#304,1.00000000000000);
#306=LINE('',#303,#305);
#307=EDGE_CURVE('',#296,#264,#306,.T.);
#308=ORIENTED_EDGE('',*,*,#307,.T.);
#309=ORIENTED_EDGE('',*,*,#269,.F.);
#310=EDGE_LOOP('',(#294,#302,#308,#309));
#311=FACE_OUTER_BOUND('',#310,.T.);
#312=CARTESIAN_POINT('',(0.276025641025644,4.88415008263827E-18,0.109982462548741));
#313=DIRECTION('',(0.0392151900709025,6.00908223720896E-17,0.999230788590755));
#314=DIRECTION('',(0.999230788590755,4.85912423229045E-18,-0.0392151900709025));
#315=AXIS2_PLACEMENT_3D('',#312,#313,#314);
#316=PLANE('',#315);
#317=ADVANCED_FACE('',(#311),#316,.T.);
#318=CARTESIAN_POINT('',(-0.0213675213675160,3.00000000000000,0.119976616731656));
#319=VERTEX_POINT('',#318);
#320=CARTESIAN_POINT('',(5.32907051820075E-15,3.00000000000000,-0.504658019700394));
#321=DIRECTION('',(-8.65956056235493E-17,-1.00000000000000,1.47827945580917E-16));
#322=DIRECTION('',(2.22044604925031E-16,1.47827945580917E-16,1.00000000000000));
#323=AXIS2_PLACEMENT_3D('',#320,#321,#322);
#324=CIRCLE('',#323,0.624999999999993);
#325=EDGE_CURVE('',#288,#319,#324,.T.);
#326=ORIENTED_EDGE('',*,*,#325,.T.);
#327=CARTESIAN_POINT('',(-0.0213675213675160,-3.00000000000000,0.119976616731656));
#328=VERTEX_POINT('',#327);
#329=CARTESIAN_POINT('',(-0.0213675213675160,7.34644898264744E-18,0.119976616731656));
#330=DIRECTION('',(0.00000000000000,-1.00000000000000,6.01370805005293E-17));
#331=VECTOR('',#330,1.00000000000000);
#332=LINE('',#329,#331);
#333=EDGE_CURVE('',#319,#328,#332,.T.);
#334=ORIENTED_EDGE('',*,*,#333,.T.);
#335=CARTESIAN_POINT('',(5.32907051820075E-15,-3.00000000000000,-0.504658019700394));
#336=DIRECTION('',(8.65956056235493E-17,1.00000000000000,-1.47827945580917E-16));
#337=DIRECTION('',(2.22044604925031E-16,1.47827945580917E-16,1.00000000000000));
#338=AXIS2_PLACEMENT_3D('',#335,#336,#337);
#339=CIRCLE('',#338,0.624999999999993);
#340=EDGE_CURVE('',#328,#296,#339,.T.);
#341=ORIENTED_EDGE('',*,*,#340,.T.);
#342=ORIENTED_EDGE('',*,*,#301,.T.);
#343=EDGE_LOOP('',(#326,#334,#341,#342));
#344=FACE_OUTER_BOUND('',#343,.T.);
#345=CARTESIAN_POINT('',(5.32907051820075E-15,-8.68423395132802E-17,-0.504658019700394));
#346=DIRECTION('',(0.00000000000000,1.00000000000000,-6.01370805005293E-17));
#347=DIRECTION('',(0.00000000000000,0.00000000000000,-1.00000000000000));
#348=AXIS2_PLACEMENT_3D('',#345,#346,#347);
#349=CYLINDRICAL_SURFACE('',#348,0.624999999999993);
#350=ADVANCED_FACE('',(#344),#349,.T.);
#351=CARTESIAN_POINT('',(-0.530683760683761,3.00000000000000,0.0999883083658257));
#352=VERTEX_POINT('',#351);
#353=CARTESIAN_POINT('',(-0.530683760683761,3.00000000000000,0.0999883083658258));
#354=DIRECTION('',(-0.999230788590755,-2.40123784991402E-18,-0.0392151900709016));
#355=VECTOR('',#354,1.00000000000000);
#356=LINE('',#353,#355);
#357=EDGE_CURVE('',#319,#352,#356,.T.);
#358=ORIENTED_EDGE('',*,*,#357,.T.);
#359=CARTESIAN_POINT('',(-0.530683760683761,-3.00000000000000,0.0999883083658261));
#360=VERTEX_POINT('',#359);
#361=CARTESIAN_POINT('',(-0.530683760683761,6.12251808961836E-18,0.0999883083658259));
#362=DIRECTION('',(0.00000000000000,1.00000000000000,-6.01370805005293E-17));
#363=VECTOR('',#362,1.00000000000000);
#364=LINE('',#361,#363);
#365=EDGE_CURVE('',#360,#352,#364,.T.);
#366=ORIENTED_EDGE('',*,*,#365,.F.);
#367=CARTESIAN_POINT('',(-0.530683760683761,-3.00000000000000,0.0999883083658261));
#368=DIRECTION('',(0.999230788590755,2.40123784991402E-18,0.0392151900709016));
#369=VECTOR('',#368,1.00000000000000);
#370=LINE('',#367,#369);
#371=EDGE_CURVE('',#360,#328,#370,.T.);
#372=ORIENTED_EDGE('',*,*,#371,.T.);
#373=ORIENTED_EDGE('',*,*,#333,.F.);
#374=EDGE_LOOP('',(#358,#366,#372,#373));
#375=FACE_OUTER_BOUND('',#374,.T.);
#376=CARTESIAN_POINT('',(-0.276025641025638,6.73448353613290E-18,0.109982462548741));
#377=DIRECTION('',(-0.0392151900709016,6.00908223720896E-17,0.999230788590755));
#378=DIRECTION('',(0.999230788590755,2.40123784991402E-18,0.0392151900709016));
#379=AXIS2_PLACEMENT_3D('',#376,#377,#378);
#380=PLANE('',#379);
#381=ADVANCED_FACE('',(#375),#380,.T.);
#382=CARTESIAN_POINT('',(-0.529316239316240,3.00000000000000,0.0600116916341741));
#383=VERTEX_POINT('',#382);
#384=CARTESIAN_POINT('',(-0.530000000000000,3.00000000000000,0.0799999999999999));
#385=DIRECTION('',(0.00000000000000,-1.00000000000000,6.12323399573677E-17));
#386=DIRECTION('',(1.00000000000000,0.00000000000000,0.00000000000000));
#387=AXIS2_PLACEMENT_3D('',#384,#385,#386);
#388=CIRCLE('',#387,0.0200000000000000);
#389=EDGE_CURVE('',#352,#383,#388,.T.);
#390=ORIENTED_EDGE('',*,*,#389,.T.);
#391=CARTESIAN_POINT('',(-0.529316239316240,-3.00000000000000,0.0600116916341744));
#392=VERTEX_POINT('',#391);
#393=CARTESIAN_POINT('',(-0.529316239316240,3.67465630356047E-18,0.0600116916341742));
#394=DIRECTION('',(0.00000000000000,-1.00000000000000,6.01370805005293E-17));
#395=VECTOR('',#394,1.00000000000000);
#396=LINE('',#393,#395);
#397=EDGE_CURVE('',#383,#392,#396,.T.);
#398=ORIENTED_EDGE('',*,*,#397,.T.);
#399=CARTESIAN_POINT('',(-0.530000000000000,-3.00000000000000,0.0800000000000003));
#400=DIRECTION('',(0.00000000000000,1.00000000000000,-6.12323399573677E-17));
#401=DIRECTION('',(1.00000000000000,0.00000000000000,0.00000000000000));
#402=AXIS2_PLACEMENT_3D('',#399,#400,#401);
#403=CIRCLE('',#402,0.0200000000000000);
#404=EDGE_CURVE('',#392,#360,#403,.T.);
#405=ORIENTED_EDGE('',*,*,#404,.T.);
#406=ORIENTED_EDGE('',*,*,#365,.T.);
#407=EDGE_LOOP('',(#390,#398,#405,#406));
#408=FACE_OUTER_BOUND('',#407,.T.);
#409=CARTESIAN_POINT('',(-0.530000000000000,4.89858719658942E-18,0.0800000000000001));
#410=DIRECTION('',(0.00000000000000,1.00000000000000,-6.01370805005293E-17));
#411=DIRECTION('',(1.00000000000000,0.00000000000000,0.00000000000000));
#412=AXIS2_PLACEMENT_3D('',#409,#410,#411);
#413=CYLINDRICAL_SURFACE('',#412,0.0200000000000000);
#414=ADVANCED_FACE('',(#408),#413,.T.);
#415=CARTESIAN_POINT('',(-0.0199999999999996,3.00000000000000,0.0799999999999999));
#416=VERTEX_POINT('',#415);
#417=CARTESIAN_POINT('',(-0.0199999999999996,3.00000000000000,0.0799999999999999));
#418=DIRECTION('',(0.999230788590756,2.40123784991381E-18,0.0392151900708942));
#419=VECTOR('',#418,1.00000000000000);
#420=LINE('',#417,#419);
#421=EDGE_CURVE('',#383,#416,#420,.T.);
#422=ORIENTED_EDGE('',*,*,#421,.T.);
#423=CARTESIAN_POINT('',(-0.0199999999999996,-3.00000000000000,0.0800000000000003));
#424=VERTEX_POINT('',#423);
#425=CARTESIAN_POINT('',(-0.0199999999999996,4.89858719658940E-18,0.0800000000000001));
#426=DIRECTION('',(0.00000000000000,-1.00000000000000,6.01370805005293E-17));
#427=VECTOR('',#426,1.00000000000000);
#428=LINE('',#425,#427);
#429=EDGE_CURVE('',#416,#424,#428,.T.);
#430=ORIENTED_EDGE('',*,*,#429,.T.);
#431=CARTESIAN_POINT('',(-0.0199999999999996,-3.00000000000000,0.0800000000000003));
#432=DIRECTION('',(-0.999230788590756,-2.40123784991381E-18,-0.0392151900708942));
#433=VECTOR('',#432,1.00000000000000);
#434=LINE('',#431,#433);
#435=EDGE_CURVE('',#424,#392,#434,.T.);
#436=ORIENTED_EDGE('',*,*,#435,.T.);
#437=ORIENTED_EDGE('',*,*,#397,.F.);
#438=EDGE_LOOP('',(#422,#430,#436,#437));
#439=FACE_OUTER_BOUND('',#438,.T.);
#440=CARTESIAN_POINT('',(-0.274658119658120,4.28662175007495E-18,0.0700058458170871));
#441=DIRECTION('',(0.0392151900708942,-6.00908223720897E-17,-0.999230788590756));
#442=DIRECTION('',(-0.999230788590756,-2.40123784991381E-18,-0.0392151900708942));
#443=AXIS2_PLACEMENT_3D('',#440,#441,#442);
#444=PLANE('',#443);
#445=ADVANCED_FACE('',(#439),#444,.T.);
#446=CARTESIAN_POINT('',(-0.0199999999999996,3.00000000000000,0.0399999999999999));
#447=DIRECTION('',(-0.00000000000000,-6.12323399573675E-17,-1.00000000000000));
#448=VECTOR('',#447,1.00000000000000);
#449=LINE('',#446,#448);
#450=EDGE_CURVE('',#416,#25,#449,.T.);
#451=ORIENTED_EDGE('',*,*,#450,.T.);
#452=ORIENTED_EDGE('',*,*,#54,.F.);
#453=CARTESIAN_POINT('',(-0.0199999999999996,-3.00000000000000,0.0400000000000002));
#454=DIRECTION('',(0.00000000000000,6.12323399573675E-17,1.00000000000000));
#455=VECTOR('',#454,1.00000000000000);
#456=LINE('',#453,#455);
#457=EDGE_CURVE('',#43,#424,#456,.T.);
#458=ORIENTED_EDGE('',*,*,#457,.T.);
#459=ORIENTED_EDGE('',*,*,#429,.F.);
#460=EDGE_LOOP('',(#451,#452,#458,#459));
#461=FACE_OUTER_BOUND('',#460,.T.);
#462=CARTESIAN_POINT('',(-0.0199999999999996,3.67394039744205E-18,0.0600000000000001));
#463=DIRECTION('',(-1.00000000000000,0.00000000000000,0.00000000000000));
#464=DIRECTION('',(0.00000000000000,6.12323399573675E-17,1.00000000000000));
#465=AXIS2_PLACEMENT_3D('',#462,#463,#464);
#466=PLANE('',#465);
#467=ADVANCED_FACE('',(#461),#466,.T.);
#468=ORIENTED_EDGE('',*,*,#32,.F.);
#469=ORIENTED_EDGE('',*,*,#450,.F.);
#470=ORIENTED_EDGE('',*,*,#421,.F.);
#471=ORIENTED_EDGE('',*,*,#389,.F.);
#472=ORIENTED_EDGE('',*,*,#357,.F.);
#473=ORIENTED_EDGE('',*,*,#325,.F.);
#474=ORIENTED_EDGE('',*,*,#293,.F.);
#475=ORIENTED_EDGE('',*,*,#261,.F.);
#476=ORIENTED_EDGE('',*,*,#229,.F.);
#477=ORIENTED_EDGE('',*,*,#198,.F.);
#478=ORIENTED_EDGE('',*,*,#167,.F.);
#479=ORIENTED_EDGE('',*,*,#135,.F.);
#480=ORIENTED_EDGE('',*,*,#103,.F.);
#481=ORIENTED_EDGE('',*,*,#71,.F.);
#482=EDGE_LOOP('',(#468,#469,#470,#471,#472,#473,#474,#475,#476,#477,#478,#479,#480,#481));
#483=FACE_OUTER_BOUND('',#482,.T.);
#484=CARTESIAN_POINT('',(-0.0199999999999996,3.00000000000000,0.0524929999999999));
#485=DIRECTION('',(1.25915603865153E-31,1.00000000000000,-6.12323399573675E-17));
#486=DIRECTION('',(-1.00000000000000,1.25915603865153E-31,0.00000000000000));
#487=AXIS2_PLACEMENT_3D('',#484,#485,#486);
#488=PLANE('',#487);
#489=ADVANCED_FACE('',(#483),#488,.T.);
#490=ORIENTED_EDGE('',*,*,#435,.F.);
#491=ORIENTED_EDGE('',*,*,#457,.F.);
#492=ORIENTED_EDGE('',*,*,#48,.F.);
#493=ORIENTED_EDGE('',*,*,#86,.F.);
#494=ORIENTED_EDGE('',*,*,#117,.F.);
#495=ORIENTED_EDGE('',*,*,#150,.F.);
#496=ORIENTED_EDGE('',*,*,#181,.F.);
#497=ORIENTED_EDGE('',*,*,#212,.F.);
#498=ORIENTED_EDGE('',*,*,#243,.F.);
#499=ORIENTED_EDGE('',*,*,#276,.F.);
#500=ORIENTED_EDGE('',*,*,#307,.F.);
#501=ORIENTED_EDGE('',*,*,#340,.F.);
#502=ORIENTED_EDGE('',*,*,#371,.F.);
#503=ORIENTED_EDGE('',*,*,#404,.F.);
#504=EDGE_LOOP('',(#490,#491,#492,#493,#494,#495,#496,#497,#498,#499,#500,#501,#502,#503));
#505=FACE_OUTER_BOUND('',#504,.T.);
#506=CARTESIAN_POINT('',(-0.0199999999999996,-3.00000000000000,0.0524930000000002));
#507=DIRECTION('',(1.25915603865153E-31,1.00000000000000,-6.12323399573675E-17));
#508=DIRECTION('',(-1.00000000000000,1.25915603865153E-31,0.00000000000000));
#509=AXIS2_PLACEMENT_3D('',#506,#507,#508);
#510=PLANE('',#509);
#511=ADVANCED_FACE('',(#505),#510,.F.);
#512=CLOSED_SHELL('',(#63,#96,#127,#160,#191,#222,#253,#286,#317,#350,#381,#414,#445,#467,#489,#511));
#513=MANIFOLD_SOLID_BREP('',#512);
#514=COLOUR_RGB('',1.00000000000000,0.00000000000000,0.00000000000000);
#515=FILL_AREA_STYLE_COLOUR('',#514);
#516=FILL_AREA_STYLE('',(#515));
#517=SURFACE_STYLE_FILL_AREA(#516);
#518=SURFACE_SIDE_STYLE('',(#517));
#519=SURFACE_STYLE_USAGE(.BOTH.,#518);
#520=PRESENTATION_STYLE_ASSIGNMENT((#519));
#521=STYLED_ITEM('',(#520),#513);
#522=ADVANCED_BREP_SHAPE_REPRESENTATION('',(#513,#23),#18);
#523=PRODUCT('','','',(#2));
#524=PRODUCT_DEFINITION_FORMATION_WITH_SPECIFIED_SOURCE('','',#523,.NOT_KNOWN.);
#525=PRODUCT_CATEGORY('part','');
#526=PRODUCT_RELATED_PRODUCT_CATEGORY('detail','',(#523));
#527=PRODUCT_CATEGORY_RELATIONSHIP('','',#525,#526);
#528=PRODUCT_DEFINITION('','',#524,#1);
#529=PRODUCT_DEFINITION_SHAPE('NONE','NONE',#528);
#530=SHAPE_DEFINITION_REPRESENTATION(#529,#522);
#531=PRESENTATION_LAYER_ASSIGNMENT('1','Unnamed [1]',(#513));
ENDSEC;
END-ISO-10303-21;
