ISO-10303-21;
HEADER;
FILE_DESCRIPTION((''),'2;1');
FILE_NAME('C:/Program Files/Kubotek/KeyCreatorPro.2021.SP0/STEP/SG2074.STP', '2021-02-04T21:29:20',(''), (''), 'KCM Version 2.0.6974.6974', 'KeyCreator Pro', '');
FILE_SCHEMA(('AUTOMOTIVE_DESIGN'));
ENDSEC;
DATA;
#1=PRODUCT_DEFINITION_CONTEXT('',#4,'design');
#2=PRODUCT_CONTEXT('',#4,'mechanical');
#3=APPLICATION_PROTOCOL_DEFINITION('International Standard','automotive_design',2001,#4);
#4=APPLICATION_CONTEXT('automotive design');
#10=DIMENSIONAL_EXPONENTS(1.0,0.0,0.0,0.0,0.0,0.0,0.0);
#11=DIMENSIONAL_EXPONENTS(0.0,0.0,0.0,0.0,0.0,0.0,0.0);
#12=(NAMED_UNIT(#10)LENGTH_UNIT()SI_UNIT(.MILLI.,.METRE.));
#13=(NAMED_UNIT(#11)PLANE_ANGLE_UNIT()SI_UNIT($,.RADIAN.));
#14=(NAMED_UNIT(#11)SOLID_ANGLE_UNIT()SI_UNIT($,.STERADIAN.));
#15=LENGTH_MEASURE_WITH_UNIT(LENGTH_MEASURE(25.4),#12);
#16= (CONVERSION_BASED_UNIT('INCH',#15)LENGTH_UNIT()NAMED_UNIT(#10));
#17=UNCERTAINTY_MEASURE_WITH_UNIT(LENGTH_MEASURE(1.0E-006),#16,'','');
#18=(GEOMETRIC_REPRESENTATION_CONTEXT(3)GLOBAL_UNCERTAINTY_ASSIGNED_CONTEXT((#17))GLOBAL_UNIT_ASSIGNED_CONTEXT((#16,#13,#14))REPRESENTATION_CONTEXT('NONE','WORKSPACE'));
#20=CARTESIAN_POINT('',(0.00000000000000,0.00000000000000,0.00000000000000));
#21=DIRECTION('',(0.00000000000000,0.00000000000000,1.00000000000000));
#22=DIRECTION('',(1.00000000000000,0.00000000000000,0.00000000000000));
#23=AXIS2_PLACEMENT_3D('',#20,#21,#22);
#24=CARTESIAN_POINT('',(3.22114605760956,12.3218353260354,-0.253353328400491));
#25=VERTEX_POINT('',#24);
#26=CARTESIAN_POINT('',(3.26026204251862,12.3218353260354,-0.261716325745602));
#27=VERTEX_POINT('',#26);
#28=CARTESIAN_POINT('',(3.24070405006409,12.3218353260354,-0.257534827073046));
#29=DIRECTION('',(0.00000000000000,-1.00000000000000,6.12323399573677E-17));
#30=DIRECTION('',(1.00000000000000,0.00000000000000,0.00000000000000));
#31=AXIS2_PLACEMENT_3D('',#28,#29,#30);
#32=CIRCLE('',#31,0.0199999999999996);
#33=EDGE_CURVE('',#25,#27,#32,.T.);
#34=ORIENTED_EDGE('',*,*,#33,.T.);
#35=CARTESIAN_POINT('',(3.26026204251862,6.32183532603545,-0.261716325745602));
#36=VERTEX_POINT('',#35);
#37=CARTESIAN_POINT('',(3.26026204251862,6.32183532603545,-0.261716325745602));
#38=DIRECTION('',(0.00000000000000,1.00000000000000,0.00000000000000));
#39=VECTOR('',#38,1.00000000000000);
#40=LINE('',#37,#39);
#41=EDGE_CURVE('',#36,#27,#40,.T.);
#42=ORIENTED_EDGE('',*,*,#41,.F.);
#43=CARTESIAN_POINT('',(3.22114605760956,6.32183532603545,-0.253353328400491));
#44=VERTEX_POINT('',#43);
#45=CARTESIAN_POINT('',(3.24070405006409,6.32183532603545,-0.257534827073046));
#46=DIRECTION('',(0.00000000000000,-1.00000000000000,6.12323399573677E-17));
#47=DIRECTION('',(1.00000000000000,0.00000000000000,0.00000000000000));
#48=AXIS2_PLACEMENT_3D('',#45,#46,#47);
#49=CIRCLE('',#48,0.0199999999999996);
#50=EDGE_CURVE('',#44,#36,#49,.T.);
#51=ORIENTED_EDGE('',*,*,#50,.F.);
#52=CARTESIAN_POINT('',(3.22114605760956,6.32183532603545,-0.253353328400491));
#53=DIRECTION('',(0.00000000000000,1.00000000000000,0.00000000000000));
#54=VECTOR('',#53,1.00000000000000);
#55=LINE('',#52,#54);
#56=EDGE_CURVE('',#44,#25,#55,.T.);
#57=ORIENTED_EDGE('',*,*,#56,.T.);
#58=EDGE_LOOP('',(#34,#42,#51,#57));
#59=FACE_OUTER_BOUND('',#58,.T.);
#60=CARTESIAN_POINT('',(3.24070405006409,6.32183532603545,-0.257534827073046));
#61=DIRECTION('',(0.00000000000000,1.00000000000000,0.00000000000000));
#62=DIRECTION('',(1.00000000000000,-0.00000000000000,0.00000000000000));
#63=AXIS2_PLACEMENT_3D('',#60,#61,#62);
#64=CYLINDRICAL_SURFACE('',#63,0.0199999999999996);
#65=ADVANCED_FACE('',(#59),#64,.T.);
#66=CARTESIAN_POINT('',(3.37455348958149,12.3218353260354,0.261800640174163));
#67=VERTEX_POINT('',#66);
#68=CARTESIAN_POINT('',(3.37455348958149,12.3218353260354,0.261800640174163));
#69=DIRECTION('',(0.213290655055827,0.00000000000000,0.976988790348106));
#70=VECTOR('',#69,1.00000000000000);
#71=LINE('',#68,#70);
#72=EDGE_CURVE('',#27,#67,#71,.T.);
#73=ORIENTED_EDGE('',*,*,#72,.T.);
#74=CARTESIAN_POINT('',(3.37455348958149,6.32183532603545,0.261800640174163));
#75=VERTEX_POINT('',#74);
#76=CARTESIAN_POINT('',(3.37455348958149,6.32183532603545,0.261800640174163));
#77=DIRECTION('',(0.00000000000000,1.00000000000000,0.00000000000000));
#78=VECTOR('',#77,1.00000000000000);
#79=LINE('',#76,#78);
#80=EDGE_CURVE('',#75,#67,#79,.T.);
#81=ORIENTED_EDGE('',*,*,#80,.F.);
#82=CARTESIAN_POINT('',(3.37455348958149,6.32183532603545,0.261800640174163));
#83=DIRECTION('',(-0.213290655055827,0.00000000000000,-0.976988790348106));
#84=VECTOR('',#83,1.00000000000000);
#85=LINE('',#82,#84);
#86=EDGE_CURVE('',#75,#36,#85,.T.);
#87=ORIENTED_EDGE('',*,*,#86,.T.);
#88=ORIENTED_EDGE('',*,*,#41,.T.);
#89=EDGE_LOOP('',(#73,#81,#87,#88));
#90=FACE_OUTER_BOUND('',#89,.T.);
#91=CARTESIAN_POINT('',(3.31740785691940,6.32183532603545,4.21373761989030E-05));
#92=DIRECTION('',(0.976988790348106,0.00000000000000,-0.213290655055827));
#93=DIRECTION('',(-0.213290655055827,0.00000000000000,-0.976988790348106));
#94=AXIS2_PLACEMENT_3D('',#91,#92,#93);
#95=PLANE('',#94);
#96=ADVANCED_FACE('',(#90),#95,.T.);
#97=CARTESIAN_POINT('',(3.32570405006409,12.3218353260354,0.322465172926954));
#98=VERTEX_POINT('',#97);
#99=CARTESIAN_POINT('',(3.32570405006409,12.3218353260354,0.272465172926954));
#100=DIRECTION('',(0.00000000000000,-1.00000000000000,6.12323399573676E-17));
#101=DIRECTION('',(1.00000000000000,0.00000000000000,0.00000000000000));
#102=AXIS2_PLACEMENT_3D('',#99,#100,#101);
#103=CIRCLE('',#102,0.0499999999999999);
#104=EDGE_CURVE('',#67,#98,#103,.T.);
#105=ORIENTED_EDGE('',*,*,#104,.T.);
#106=CARTESIAN_POINT('',(3.32570405006409,6.32183532603545,0.322465172926954));
#107=VERTEX_POINT('',#106);
#108=CARTESIAN_POINT('',(3.32570405006409,6.32183532603545,0.322465172926954));
#109=DIRECTION('',(0.00000000000000,1.00000000000000,0.00000000000000));
#110=VECTOR('',#109,1.00000000000000);
#111=LINE('',#108,#110);
#112=EDGE_CURVE('',#107,#98,#111,.T.);
#113=ORIENTED_EDGE('',*,*,#112,.F.);
#114=CARTESIAN_POINT('',(3.32570405006409,6.32183532603545,0.272465172926954));
#115=DIRECTION('',(0.00000000000000,-1.00000000000000,6.12323399573676E-17));
#116=DIRECTION('',(1.00000000000000,0.00000000000000,0.00000000000000));
#117=AXIS2_PLACEMENT_3D('',#114,#115,#116);
#118=CIRCLE('',#117,0.0499999999999999);
#119=EDGE_CURVE('',#75,#107,#118,.T.);
#120=ORIENTED_EDGE('',*,*,#119,.F.);
#121=ORIENTED_EDGE('',*,*,#80,.T.);
#122=EDGE_LOOP('',(#105,#113,#120,#121));
#123=FACE_OUTER_BOUND('',#122,.T.);
#124=CARTESIAN_POINT('',(3.32570405006409,6.32183532603545,0.272465172926954));
#125=DIRECTION('',(0.00000000000000,1.00000000000000,0.00000000000000));
#126=DIRECTION('',(-0.778874397786906,0.00000000000000,-0.627179936279920));
#127=AXIS2_PLACEMENT_3D('',#124,#125,#126);
#128=CYLINDRICAL_SURFACE('',#127,0.0499999999999999);
#129=ADVANCED_FACE('',(#123),#128,.T.);
#130=CARTESIAN_POINT('',(2.92570405006409,12.3218353260354,0.322465172926954));
#131=VERTEX_POINT('',#130);
#132=CARTESIAN_POINT('',(2.92570405006409,12.3218353260354,0.322465172926954));
#133=DIRECTION('',(-1.00000000000000,-0.00000000000000,-0.00000000000000));
#134=VECTOR('',#133,1.00000000000000);
#135=LINE('',#132,#134);
#136=EDGE_CURVE('',#98,#131,#135,.T.);
#137=ORIENTED_EDGE('',*,*,#136,.T.);
#138=CARTESIAN_POINT('',(2.92570405006409,6.32183532603545,0.322465172926954));
#139=VERTEX_POINT('',#138);
#140=CARTESIAN_POINT('',(2.92570405006409,6.32183532603545,0.322465172926954));
#141=DIRECTION('',(0.00000000000000,1.00000000000000,0.00000000000000));
#142=VECTOR('',#141,1.00000000000000);
#143=LINE('',#140,#142);
#144=EDGE_CURVE('',#139,#131,#143,.T.);
#145=ORIENTED_EDGE('',*,*,#144,.F.);
#146=CARTESIAN_POINT('',(2.92570405006409,6.32183532603545,0.322465172926954));
#147=DIRECTION('',(1.00000000000000,0.00000000000000,0.00000000000000));
#148=VECTOR('',#147,1.00000000000000);
#149=LINE('',#146,#148);
#150=EDGE_CURVE('',#139,#107,#149,.T.);
#151=ORIENTED_EDGE('',*,*,#150,.T.);
#152=ORIENTED_EDGE('',*,*,#112,.T.);
#153=EDGE_LOOP('',(#137,#145,#151,#152));
#154=FACE_OUTER_BOUND('',#153,.T.);
#155=CARTESIAN_POINT('',(3.12570405006409,6.32183532603545,0.322465172926954));
#156=DIRECTION('',(0.00000000000000,0.00000000000000,1.00000000000000));
#157=DIRECTION('',(1.00000000000000,0.00000000000000,0.00000000000000));
#158=AXIS2_PLACEMENT_3D('',#155,#156,#157);
#159=PLANE('',#158);
#160=ADVANCED_FACE('',(#154),#159,.T.);
#161=CARTESIAN_POINT('',(2.87685461054668,12.3218353260354,0.261800640174163));
#162=VERTEX_POINT('',#161);
#163=CARTESIAN_POINT('',(2.92570405006409,12.3218353260354,0.272465172926956));
#164=DIRECTION('',(0.00000000000000,-1.00000000000000,6.12323399573677E-17));
#165=DIRECTION('',(1.00000000000000,0.00000000000000,0.00000000000000));
#166=AXIS2_PLACEMENT_3D('',#163,#164,#165);
#167=CIRCLE('',#166,0.0499999999999993);
#168=EDGE_CURVE('',#131,#162,#167,.T.);
#169=ORIENTED_EDGE('',*,*,#168,.T.);
#170=CARTESIAN_POINT('',(2.87685461054668,6.32183532603545,0.261800640174163));
#171=VERTEX_POINT('',#170);
#172=CARTESIAN_POINT('',(2.87685461054668,6.32183532603545,0.261800640174163));
#173=DIRECTION('',(0.00000000000000,1.00000000000000,0.00000000000000));
#174=VECTOR('',#173,1.00000000000000);
#175=LINE('',#172,#174);
#176=EDGE_CURVE('',#171,#162,#175,.T.);
#177=ORIENTED_EDGE('',*,*,#176,.F.);
#178=CARTESIAN_POINT('',(2.92570405006409,6.32183532603545,0.272465172926956));
#179=DIRECTION('',(0.00000000000000,-1.00000000000000,6.12323399573677E-17));
#180=DIRECTION('',(1.00000000000000,0.00000000000000,0.00000000000000));
#181=AXIS2_PLACEMENT_3D('',#178,#179,#180);
#182=CIRCLE('',#181,0.0499999999999993);
#183=EDGE_CURVE('',#139,#171,#182,.T.);
#184=ORIENTED_EDGE('',*,*,#183,.F.);
#185=ORIENTED_EDGE('',*,*,#144,.T.);
#186=EDGE_LOOP('',(#169,#177,#184,#185));
#187=FACE_OUTER_BOUND('',#186,.T.);
#188=CARTESIAN_POINT('',(2.92570405006409,6.32183532603545,0.272465172926956));
#189=DIRECTION('',(0.00000000000000,1.00000000000000,0.00000000000000));
#190=DIRECTION('',(1.00000000000000,-0.00000000000000,0.00000000000000));
#191=AXIS2_PLACEMENT_3D('',#188,#189,#190);
#192=CYLINDRICAL_SURFACE('',#191,0.0499999999999993);
#193=ADVANCED_FACE('',(#187),#192,.T.);
#194=CARTESIAN_POINT('',(2.99114605760956,12.3218353260354,-0.261716325745603));
#195=VERTEX_POINT('',#194);
#196=CARTESIAN_POINT('',(2.87685461054668,12.3218353260354,0.261800640174163));
#197=DIRECTION('',(0.213290655055830,0.00000000000000,-0.976988790348106));
#198=VECTOR('',#197,1.00000000000000);
#199=LINE('',#196,#198);
#200=EDGE_CURVE('',#162,#195,#199,.T.);
#201=ORIENTED_EDGE('',*,*,#200,.T.);
#202=CARTESIAN_POINT('',(2.99114605760956,6.32183532603545,-0.261716325745603));
#203=VERTEX_POINT('',#202);
#204=CARTESIAN_POINT('',(2.99114605760956,6.32183532603545,-0.261716325745603));
#205=DIRECTION('',(0.00000000000000,1.00000000000000,0.00000000000000));
#206=VECTOR('',#205,1.00000000000000);
#207=LINE('',#204,#206);
#208=EDGE_CURVE('',#203,#195,#207,.T.);
#209=ORIENTED_EDGE('',*,*,#208,.F.);
#210=CARTESIAN_POINT('',(2.87685461054668,6.32183532603545,0.261800640174163));
#211=DIRECTION('',(0.213290655055830,0.00000000000000,-0.976988790348106));
#212=VECTOR('',#211,1.00000000000000);
#213=LINE('',#210,#212);
#214=EDGE_CURVE('',#171,#203,#213,.T.);
#215=ORIENTED_EDGE('',*,*,#214,.F.);
#216=ORIENTED_EDGE('',*,*,#176,.T.);
#217=EDGE_LOOP('',(#201,#209,#215,#216));
#218=FACE_OUTER_BOUND('',#217,.T.);
#219=CARTESIAN_POINT('',(2.93400024320877,6.32183532603545,4.21373761985144E-05));
#220=DIRECTION('',(-0.976988790348106,0.00000000000000,-0.213290655055830));
#221=DIRECTION('',(-0.213290655055830,-0.00000000000000,0.976988790348106));
#222=AXIS2_PLACEMENT_3D('',#219,#220,#221);
#223=PLANE('',#222);
#224=ADVANCED_FACE('',(#218),#223,.T.);
#225=CARTESIAN_POINT('',(3.03026204251862,12.3218353260354,-0.253353328400490));
#226=VERTEX_POINT('',#225);
#227=CARTESIAN_POINT('',(3.01070405006409,12.3218353260354,-0.257534827073046));
#228=DIRECTION('',(0.00000000000000,-1.00000000000000,6.12323399573676E-17));
#229=DIRECTION('',(1.00000000000000,0.00000000000000,0.00000000000000));
#230=AXIS2_PLACEMENT_3D('',#227,#228,#229);
#231=CIRCLE('',#230,0.0200000000000004);
#232=EDGE_CURVE('',#195,#226,#231,.T.);
#233=ORIENTED_EDGE('',*,*,#232,.T.);
#234=CARTESIAN_POINT('',(3.03026204251862,6.32183532603545,-0.253353328400490));
#235=VERTEX_POINT('',#234);
#236=CARTESIAN_POINT('',(3.03026204251862,6.32183532603545,-0.253353328400490));
#237=DIRECTION('',(0.00000000000000,1.00000000000000,0.00000000000000));
#238=VECTOR('',#237,1.00000000000000);
#239=LINE('',#236,#238);
#240=EDGE_CURVE('',#235,#226,#239,.T.);
#241=ORIENTED_EDGE('',*,*,#240,.F.);
#242=CARTESIAN_POINT('',(3.01070405006409,6.32183532603545,-0.257534827073046));
#243=DIRECTION('',(0.00000000000000,-1.00000000000000,6.12323399573676E-17));
#244=DIRECTION('',(1.00000000000000,0.00000000000000,0.00000000000000));
#245=AXIS2_PLACEMENT_3D('',#242,#243,#244);
#246=CIRCLE('',#245,0.0200000000000004);
#247=EDGE_CURVE('',#203,#235,#246,.T.);
#248=ORIENTED_EDGE('',*,*,#247,.F.);
#249=ORIENTED_EDGE('',*,*,#208,.T.);
#250=EDGE_LOOP('',(#233,#241,#248,#249));
#251=FACE_OUTER_BOUND('',#250,.T.);
#252=CARTESIAN_POINT('',(3.01070405006409,6.32183532603545,-0.257534827073046));
#253=DIRECTION('',(0.00000000000000,1.00000000000000,0.00000000000000));
#254=DIRECTION('',(-0.209074933627824,0.00000000000000,0.977899622726444));
#255=AXIS2_PLACEMENT_3D('',#252,#253,#254);
#256=CYLINDRICAL_SURFACE('',#255,0.0200000000000004);
#257=ADVANCED_FACE('',(#251),#256,.T.);
#258=CARTESIAN_POINT('',(2.91593416216061,12.3218353260354,0.270332266376395));
#259=VERTEX_POINT('',#258);
#260=CARTESIAN_POINT('',(2.91593416216061,12.3218353260354,0.270332266376395));
#261=DIRECTION('',(-0.213290655055826,0.00000000000000,0.976988790348107));
#262=VECTOR('',#261,1.00000000000000);
#263=LINE('',#260,#262);
#264=EDGE_CURVE('',#226,#259,#263,.T.);
#265=ORIENTED_EDGE('',*,*,#264,.T.);
#266=CARTESIAN_POINT('',(2.91593416216061,6.32183532603545,0.270332266376395));
#267=VERTEX_POINT('',#266);
#268=CARTESIAN_POINT('',(2.91593416216061,6.32183532603545,0.270332266376395));
#269=DIRECTION('',(0.00000000000000,1.00000000000000,0.00000000000000));
#270=VECTOR('',#269,1.00000000000000);
#271=LINE('',#268,#270);
#272=EDGE_CURVE('',#267,#259,#271,.T.);
#273=ORIENTED_EDGE('',*,*,#272,.F.);
#274=CARTESIAN_POINT('',(2.91593416216061,6.32183532603545,0.270332266376395));
#275=DIRECTION('',(0.213290655055826,0.00000000000000,-0.976988790348107));
#276=VECTOR('',#275,1.00000000000000);
#277=LINE('',#274,#276);
#278=EDGE_CURVE('',#267,#235,#277,.T.);
#279=ORIENTED_EDGE('',*,*,#278,.T.);
#280=ORIENTED_EDGE('',*,*,#240,.T.);
#281=EDGE_LOOP('',(#265,#273,#279,#280));
#282=FACE_OUTER_BOUND('',#281,.T.);
#283=CARTESIAN_POINT('',(2.97309819320896,6.32183532603545,0.00848948882603423));
#284=DIRECTION('',(0.976988790348107,-0.00000000000000,0.213290655055826));
#285=DIRECTION('',(0.213290655055826,0.00000000000000,-0.976988790348107));
#286=AXIS2_PLACEMENT_3D('',#283,#284,#285);
#287=PLANE('',#286);
#288=ADVANCED_FACE('',(#282),#287,.T.);
#289=CARTESIAN_POINT('',(2.92570405006409,12.3218353260354,0.282465172926954));
#290=VERTEX_POINT('',#289);
#291=CARTESIAN_POINT('',(2.92570405006409,12.3218353260354,0.272465172926956));
#292=DIRECTION('',(0.00000000000000,1.00000000000000,-6.12323399573677E-17));
#293=DIRECTION('',(1.00000000000000,0.00000000000000,0.00000000000000));
#294=AXIS2_PLACEMENT_3D('',#291,#292,#293);
#295=CIRCLE('',#294,0.00999999999999970);
#296=EDGE_CURVE('',#259,#290,#295,.T.);
#297=ORIENTED_EDGE('',*,*,#296,.T.);
#298=CARTESIAN_POINT('',(2.92570405006409,6.32183532603545,0.282465172926954));
#299=VERTEX_POINT('',#298);
#300=CARTESIAN_POINT('',(2.92570405006409,6.32183532603545,0.282465172926954));
#301=DIRECTION('',(0.00000000000000,1.00000000000000,0.00000000000000));
#302=VECTOR('',#301,1.00000000000000);
#303=LINE('',#300,#302);
#304=EDGE_CURVE('',#299,#290,#303,.T.);
#305=ORIENTED_EDGE('',*,*,#304,.F.);
#306=CARTESIAN_POINT('',(2.92570405006409,6.32183532603545,0.272465172926956));
#307=DIRECTION('',(0.00000000000000,-1.00000000000000,6.12323399573677E-17));
#308=DIRECTION('',(1.00000000000000,0.00000000000000,0.00000000000000));
#309=AXIS2_PLACEMENT_3D('',#306,#307,#308);
#310=CIRCLE('',#309,0.00999999999999970);
#311=EDGE_CURVE('',#299,#267,#310,.T.);
#312=ORIENTED_EDGE('',*,*,#311,.T.);
#313=ORIENTED_EDGE('',*,*,#272,.T.);
#314=EDGE_LOOP('',(#297,#305,#312,#313));
#315=FACE_OUTER_BOUND('',#314,.T.);
#316=CARTESIAN_POINT('',(2.92570405006409,6.32183532603545,0.272465172926956));
#317=DIRECTION('',(0.00000000000000,1.00000000000000,0.00000000000000));
#318=DIRECTION('',(1.00000000000000,-0.00000000000000,0.00000000000000));
#319=AXIS2_PLACEMENT_3D('',#316,#317,#318);
#320=CYLINDRICAL_SURFACE('',#319,0.00999999999999970);
#321=ADVANCED_FACE('',(#315),#320,.F.);
#322=CARTESIAN_POINT('',(3.32570405006409,12.3218353260354,0.282465172926955));
#323=VERTEX_POINT('',#322);
#324=CARTESIAN_POINT('',(2.92570405006409,12.3218353260354,0.282465172926954));
#325=DIRECTION('',(1.00000000000000,0.00000000000000,0.00000000000000));
#326=VECTOR('',#325,1.00000000000000);
#327=LINE('',#324,#326);
#328=EDGE_CURVE('',#290,#323,#327,.T.);
#329=ORIENTED_EDGE('',*,*,#328,.T.);
#330=CARTESIAN_POINT('',(3.32570405006409,6.32183532603545,0.282465172926955));
#331=VERTEX_POINT('',#330);
#332=CARTESIAN_POINT('',(3.32570405006409,6.32183532603545,0.282465172926955));
#333=DIRECTION('',(0.00000000000000,1.00000000000000,0.00000000000000));
#334=VECTOR('',#333,1.00000000000000);
#335=LINE('',#332,#334);
#336=EDGE_CURVE('',#331,#323,#335,.T.);
#337=ORIENTED_EDGE('',*,*,#336,.F.);
#338=CARTESIAN_POINT('',(2.92570405006409,6.32183532603545,0.282465172926954));
#339=DIRECTION('',(1.00000000000000,0.00000000000000,0.00000000000000));
#340=VECTOR('',#339,1.00000000000000);
#341=LINE('',#338,#340);
#342=EDGE_CURVE('',#299,#331,#341,.T.);
#343=ORIENTED_EDGE('',*,*,#342,.F.);
#344=ORIENTED_EDGE('',*,*,#304,.T.);
#345=EDGE_LOOP('',(#329,#337,#343,#344));
#346=FACE_OUTER_BOUND('',#345,.T.);
#347=CARTESIAN_POINT('',(3.12570405006409,6.32183532603545,0.282465172926954));
#348=DIRECTION('',(0.00000000000000,0.00000000000000,-1.00000000000000));
#349=DIRECTION('',(-1.00000000000000,-0.00000000000000,-0.00000000000000));
#350=AXIS2_PLACEMENT_3D('',#347,#348,#349);
#351=PLANE('',#350);
#352=ADVANCED_FACE('',(#346),#351,.T.);
#353=CARTESIAN_POINT('',(3.33547393796757,12.3218353260354,0.270332266376395));
#354=VERTEX_POINT('',#353);
#355=CARTESIAN_POINT('',(3.32570405006409,12.3218353260354,0.272465172926956));
#356=DIRECTION('',(0.00000000000000,1.00000000000000,-6.12323399573677E-17));
#357=DIRECTION('',(1.00000000000000,0.00000000000000,0.00000000000000));
#358=AXIS2_PLACEMENT_3D('',#355,#356,#357);
#359=CIRCLE('',#358,0.00999999999999970);
#360=EDGE_CURVE('',#323,#354,#359,.T.);
#361=ORIENTED_EDGE('',*,*,#360,.T.);
#362=CARTESIAN_POINT('',(3.33547393796757,6.32183532603545,0.270332266376395));
#363=VERTEX_POINT('',#362);
#364=CARTESIAN_POINT('',(3.33547393796757,6.32183532603545,0.270332266376395));
#365=DIRECTION('',(0.00000000000000,1.00000000000000,0.00000000000000));
#366=VECTOR('',#365,1.00000000000000);
#367=LINE('',#364,#366);
#368=EDGE_CURVE('',#363,#354,#367,.T.);
#369=ORIENTED_EDGE('',*,*,#368,.F.);
#370=CARTESIAN_POINT('',(3.32570405006409,6.32183532603545,0.272465172926956));
#371=DIRECTION('',(0.00000000000000,-1.00000000000000,6.12323399573677E-17));
#372=DIRECTION('',(1.00000000000000,0.00000000000000,0.00000000000000));
#373=AXIS2_PLACEMENT_3D('',#370,#371,#372);
#374=CIRCLE('',#373,0.00999999999999970);
#375=EDGE_CURVE('',#363,#331,#374,.T.);
#376=ORIENTED_EDGE('',*,*,#375,.T.);
#377=ORIENTED_EDGE('',*,*,#336,.T.);
#378=EDGE_LOOP('',(#361,#369,#376,#377));
#379=FACE_OUTER_BOUND('',#378,.T.);
#380=CARTESIAN_POINT('',(3.32570405006409,6.32183532603545,0.272465172926956));
#381=DIRECTION('',(0.00000000000000,1.00000000000000,0.00000000000000));
#382=DIRECTION('',(-0.778874397786978,0.00000000000000,-0.627179936279830));
#383=AXIS2_PLACEMENT_3D('',#380,#381,#382);
#384=CYLINDRICAL_SURFACE('',#383,0.00999999999999970);
#385=ADVANCED_FACE('',(#379),#384,.F.);
#386=CARTESIAN_POINT('',(3.33547393796757,12.3218353260354,0.270332266376395));
#387=DIRECTION('',(-0.213290655055828,0.00000000000000,-0.976988790348106));
#388=VECTOR('',#387,1.00000000000000);
#389=LINE('',#386,#388);
#390=EDGE_CURVE('',#354,#25,#389,.T.);
#391=ORIENTED_EDGE('',*,*,#390,.T.);
#392=ORIENTED_EDGE('',*,*,#56,.F.);
#393=CARTESIAN_POINT('',(3.33547393796757,6.32183532603545,0.270332266376395));
#394=DIRECTION('',(-0.213290655055828,0.00000000000000,-0.976988790348106));
#395=VECTOR('',#394,1.00000000000000);
#396=LINE('',#393,#395);
#397=EDGE_CURVE('',#363,#44,#396,.T.);
#398=ORIENTED_EDGE('',*,*,#397,.F.);
#399=ORIENTED_EDGE('',*,*,#368,.T.);
#400=EDGE_LOOP('',(#391,#392,#398,#399));
#401=FACE_OUTER_BOUND('',#400,.T.);
#402=CARTESIAN_POINT('',(3.27830990691921,6.32183532603545,0.00848948882603412));
#403=DIRECTION('',(-0.976988790348106,0.00000000000000,0.213290655055828));
#404=DIRECTION('',(0.213290655055828,-0.00000000000000,0.976988790348106));
#405=AXIS2_PLACEMENT_3D('',#402,#403,#404);
#406=PLANE('',#405);
#407=ADVANCED_FACE('',(#401),#406,.T.);
#408=ORIENTED_EDGE('',*,*,#33,.F.);
#409=ORIENTED_EDGE('',*,*,#390,.F.);
#410=ORIENTED_EDGE('',*,*,#360,.F.);
#411=ORIENTED_EDGE('',*,*,#328,.F.);
#412=ORIENTED_EDGE('',*,*,#296,.F.);
#413=ORIENTED_EDGE('',*,*,#264,.F.);
#414=ORIENTED_EDGE('',*,*,#232,.F.);
#415=ORIENTED_EDGE('',*,*,#200,.F.);
#416=ORIENTED_EDGE('',*,*,#168,.F.);
#417=ORIENTED_EDGE('',*,*,#136,.F.);
#418=ORIENTED_EDGE('',*,*,#104,.F.);
#419=ORIENTED_EDGE('',*,*,#72,.F.);
#420=EDGE_LOOP('',(#408,#409,#410,#411,#412,#413,#414,#415,#416,#417,#418,#419));
#421=FACE_OUTER_BOUND('',#420,.T.);
#422=CARTESIAN_POINT('',(3.29976642597321,12.3218353260354,0.106772175379562));
#423=DIRECTION('',(0.00000000000000,1.00000000000000,0.00000000000000));
#424=DIRECTION('',(-1.00000000000000,0.00000000000000,0.00000000000000));
#425=AXIS2_PLACEMENT_3D('',#422,#423,#424);
#426=PLANE('',#425);
#427=ADVANCED_FACE('',(#421),#426,.T.);
#428=ORIENTED_EDGE('',*,*,#397,.T.);
#429=ORIENTED_EDGE('',*,*,#50,.T.);
#430=ORIENTED_EDGE('',*,*,#86,.F.);
#431=ORIENTED_EDGE('',*,*,#119,.T.);
#432=ORIENTED_EDGE('',*,*,#150,.F.);
#433=ORIENTED_EDGE('',*,*,#183,.T.);
#434=ORIENTED_EDGE('',*,*,#214,.T.);
#435=ORIENTED_EDGE('',*,*,#247,.T.);
#436=ORIENTED_EDGE('',*,*,#278,.F.);
#437=ORIENTED_EDGE('',*,*,#311,.F.);
#438=ORIENTED_EDGE('',*,*,#342,.T.);
#439=ORIENTED_EDGE('',*,*,#375,.F.);
#440=EDGE_LOOP('',(#428,#429,#430,#431,#432,#433,#434,#435,#436,#437,#438,#439));
#441=FACE_OUTER_BOUND('',#440,.T.);
#442=CARTESIAN_POINT('',(3.29976642597321,6.32183532603545,0.106772175379562));
#443=DIRECTION('',(0.00000000000000,1.00000000000000,0.00000000000000));
#444=DIRECTION('',(-1.00000000000000,0.00000000000000,0.00000000000000));
#445=AXIS2_PLACEMENT_3D('',#442,#443,#444);
#446=PLANE('',#445);
#447=ADVANCED_FACE('',(#441),#446,.F.);
#448=CLOSED_SHELL('',(#65,#96,#129,#160,#193,#224,#257,#288,#321,#352,#385,#407,#427,#447));
#449=MANIFOLD_SOLID_BREP('',#448);
#450=COLOUR_RGB('',1.00000000000000,0.00000000000000,0.00000000000000);
#451=FILL_AREA_STYLE_COLOUR('',#450);
#452=FILL_AREA_STYLE('',(#451));
#453=SURFACE_STYLE_FILL_AREA(#452);
#454=SURFACE_SIDE_STYLE('',(#453));
#455=SURFACE_STYLE_USAGE(.BOTH.,#454);
#456=PRESENTATION_STYLE_ASSIGNMENT((#455));
#457=STYLED_ITEM('',(#456),#449);
#458=ADVANCED_BREP_SHAPE_REPRESENTATION('',(#449,#23),#18);
#459=PRODUCT('', '', ' ',(#2));
#460=PRODUCT_DEFINITION_FORMATION_WITH_SPECIFIED_SOURCE (' ', ' ', #459, .NOT_KNOWN.) ;
#461=PRODUCT_CATEGORY('part','') ;
#462=PRODUCT_RELATED_PRODUCT_CATEGORY('detail', ' ', (#459)) ;
#463=PRODUCT_CATEGORY_RELATIONSHIP(' ', ' ', #461, #462);
#464=PRODUCT_DEFINITION('', '', #460, #1);
#465=PRODUCT_DEFINITION_SHAPE('NONE', 'NONE', #464);
#466=SHAPE_DEFINITION_REPRESENTATION(#465, #458);
#467=PRESENTATION_LAYER_ASSIGNMENT('1','Unnamed [1]',(#449));
#468=MECHANICAL_DESIGN_GEOMETRIC_PRESENTATION_REPRESENTATION('',(#457), #18);
ENDSEC;
END-ISO-10303-21;
