ISO-10303-21;
HEADER;
FILE_DESCRIPTION((''),'2;1');
FILE_NAME('C:/Program Files/Kubotek/KeyCreatorPro.2021.SP0/STEP/SG2073.STP', '2021-02-05T21:29:15',(''), (''), 'KCM Version 2.0.6974.6974', 'KeyCreator Pro', '');
FILE_SCHEMA(('AUTOMOTIVE_DESIGN'));
ENDSEC;
DATA;
#1=PRODUCT_DEFINITION_CONTEXT('',#4,'design');
#2=PRODUCT_CONTEXT('',#4,'mechanical');
#3=APPLICATION_PROTOCOL_DEFINITION('International Standard','automotive_design',2001,#4);
#4=APPLICATION_CONTEXT('automotive design');
#10=DIMENSIONAL_EXPONENTS(1.0,0.0,0.0,0.0,0.0,0.0,0.0);
#11=DIMENSIONAL_EXPONENTS(0.0,0.0,0.0,0.0,0.0,0.0,0.0);
#12=(NAMED_UNIT(#10)LENGTH_UNIT()SI_UNIT(.MILLI.,.METRE.));
#13=(NAMED_UNIT(#11)PLANE_ANGLE_UNIT()SI_UNIT($,.RADIAN.));
#14=(NAMED_UNIT(#11)SOLID_ANGLE_UNIT()SI_UNIT($,.STERADIAN.));
#15=LENGTH_MEASURE_WITH_UNIT(LENGTH_MEASURE(25.4),#12);
#16= (CONVERSION_BASED_UNIT('INCH',#15)LENGTH_UNIT()NAMED_UNIT(#10));
#17=UNCERTAINTY_MEASURE_WITH_UNIT(LENGTH_MEASURE(1.0E-006),#16,'','');
#18=(GEOMETRIC_REPRESENTATION_CONTEXT(3)GLOBAL_UNCERTAINTY_ASSIGNED_CONTEXT((#17))GLOBAL_UNIT_ASSIGNED_CONTEXT((#16,#13,#14))REPRESENTATION_CONTEXT('NONE','WORKSPACE'));
#20=CARTESIAN_POINT('',(0.00000000000000,0.00000000000000,0.00000000000000));
#21=DIRECTION('',(0.00000000000000,0.00000000000000,1.00000000000000));
#22=DIRECTION('',(1.00000000000000,0.00000000000000,0.00000000000000));
#23=AXIS2_PLACEMENT_3D('',#20,#21,#22);
#24=CARTESIAN_POINT('',(3.36175605010986,11.2698775711060,-0.781499999999999));
#25=VERTEX_POINT('',#24);
#26=CARTESIAN_POINT('',(3.42375605010986,11.2698775711060,-0.781499999999999));
#27=VERTEX_POINT('',#26);
#28=CARTESIAN_POINT('',(3.36175605010986,11.2698775711060,-0.781499999999999));
#29=DIRECTION('',(1.00000000000000,0.00000000000000,0.00000000000000));
#30=VECTOR('',#29,1.00000000000000);
#31=LINE('',#28,#30);
#32=EDGE_CURVE('',#25,#27,#31,.T.);
#33=ORIENTED_EDGE('',*,*,#32,.T.);
#34=CARTESIAN_POINT('',(3.42375605010986,5.26987757110596,-0.781499999999999));
#35=VERTEX_POINT('',#34);
#36=CARTESIAN_POINT('',(3.42375605010986,5.26987757110596,-0.781499999999999));
#37=DIRECTION('',(0.00000000000000,1.00000000000000,0.00000000000000));
#38=VECTOR('',#37,1.00000000000000);
#39=LINE('',#36,#38);
#40=EDGE_CURVE('',#35,#27,#39,.T.);
#41=ORIENTED_EDGE('',*,*,#40,.F.);
#42=CARTESIAN_POINT('',(3.36175605010986,5.26987757110596,-0.781499999999999));
#43=VERTEX_POINT('',#42);
#44=CARTESIAN_POINT('',(3.36175605010986,5.26987757110596,-0.781499999999999));
#45=DIRECTION('',(1.00000000000000,0.00000000000000,0.00000000000000));
#46=VECTOR('',#45,1.00000000000000);
#47=LINE('',#44,#46);
#48=EDGE_CURVE('',#43,#35,#47,.T.);
#49=ORIENTED_EDGE('',*,*,#48,.F.);
#50=CARTESIAN_POINT('',(3.36175605010986,5.26987757110596,-0.781499999999999));
#51=DIRECTION('',(0.00000000000000,1.00000000000000,0.00000000000000));
#52=VECTOR('',#51,1.00000000000000);
#53=LINE('',#50,#52);
#54=EDGE_CURVE('',#43,#25,#53,.T.);
#55=ORIENTED_EDGE('',*,*,#54,.T.);
#56=EDGE_LOOP('',(#33,#41,#49,#55));
#57=FACE_OUTER_BOUND('',#56,.T.);
#58=CARTESIAN_POINT('',(3.39275605010986,5.26987757110596,-0.781499999999999));
#59=DIRECTION('',(0.00000000000000,0.00000000000000,-1.00000000000000));
#60=DIRECTION('',(-1.00000000000000,-0.00000000000000,-0.00000000000000));
#61=AXIS2_PLACEMENT_3D('',#58,#59,#60);
#62=PLANE('',#61);
#63=ADVANCED_FACE('',(#57),#62,.T.);
#64=CARTESIAN_POINT('',(3.42375605010986,11.2698775711060,0.781500000000000));
#65=VERTEX_POINT('',#64);
#66=CARTESIAN_POINT('',(3.42375605010986,11.2698775711060,-0.781499999999999));
#67=DIRECTION('',(0.00000000000000,0.00000000000000,1.00000000000000));
#68=VECTOR('',#67,1.00000000000000);
#69=LINE('',#66,#68);
#70=EDGE_CURVE('',#27,#65,#69,.T.);
#71=ORIENTED_EDGE('',*,*,#70,.T.);
#72=CARTESIAN_POINT('',(3.42375605010986,5.26987757110596,0.781500000000000));
#73=VERTEX_POINT('',#72);
#74=CARTESIAN_POINT('',(3.42375605010986,5.26987757110596,0.781500000000000));
#75=DIRECTION('',(0.00000000000000,1.00000000000000,0.00000000000000));
#76=VECTOR('',#75,1.00000000000000);
#77=LINE('',#74,#76);
#78=EDGE_CURVE('',#73,#65,#77,.T.);
#79=ORIENTED_EDGE('',*,*,#78,.F.);
#80=CARTESIAN_POINT('',(3.42375605010986,5.26987757110596,-0.781499999999999));
#81=DIRECTION('',(0.00000000000000,0.00000000000000,1.00000000000000));
#82=VECTOR('',#81,1.00000000000000);
#83=LINE('',#80,#82);
#84=EDGE_CURVE('',#35,#73,#83,.T.);
#85=ORIENTED_EDGE('',*,*,#84,.F.);
#86=ORIENTED_EDGE('',*,*,#40,.T.);
#87=EDGE_LOOP('',(#71,#79,#85,#86));
#88=FACE_OUTER_BOUND('',#87,.T.);
#89=CARTESIAN_POINT('',(3.42375605010986,5.26987757110596,4.44089209850063E-16));
#90=DIRECTION('',(1.00000000000000,0.00000000000000,0.00000000000000));
#91=DIRECTION('',(-0.00000000000000,-0.00000000000000,-1.00000000000000));
#92=AXIS2_PLACEMENT_3D('',#89,#90,#91);
#93=PLANE('',#92);
#94=ADVANCED_FACE('',(#88),#93,.T.);
#95=CARTESIAN_POINT('',(3.36175605010986,11.2698775711060,0.843500000000001));
#96=VERTEX_POINT('',#95);
#97=CARTESIAN_POINT('',(3.36175605010986,11.2698775711060,0.781500000000000));
#98=DIRECTION('',(0.00000000000000,-1.00000000000000,6.12323399573677E-17));
#99=DIRECTION('',(1.00000000000000,0.00000000000000,0.00000000000000));
#100=AXIS2_PLACEMENT_3D('',#97,#98,#99);
#101=CIRCLE('',#100,0.0620000000000000);
#102=EDGE_CURVE('',#65,#96,#101,.T.);
#103=ORIENTED_EDGE('',*,*,#102,.T.);
#104=CARTESIAN_POINT('',(3.36175605010986,5.26987757110596,0.843500000000001));
#105=VERTEX_POINT('',#104);
#106=CARTESIAN_POINT('',(3.36175605010986,5.26987757110596,0.843500000000001));
#107=DIRECTION('',(0.00000000000000,1.00000000000000,0.00000000000000));
#108=VECTOR('',#107,1.00000000000000);
#109=LINE('',#106,#108);
#110=EDGE_CURVE('',#105,#96,#109,.T.);
#111=ORIENTED_EDGE('',*,*,#110,.F.);
#112=CARTESIAN_POINT('',(3.36175605010986,5.26987757110596,0.781500000000000));
#113=DIRECTION('',(0.00000000000000,-1.00000000000000,6.12323399573677E-17));
#114=DIRECTION('',(1.00000000000000,0.00000000000000,0.00000000000000));
#115=AXIS2_PLACEMENT_3D('',#112,#113,#114);
#116=CIRCLE('',#115,0.0620000000000000);
#117=EDGE_CURVE('',#73,#105,#116,.T.);
#118=ORIENTED_EDGE('',*,*,#117,.F.);
#119=ORIENTED_EDGE('',*,*,#78,.T.);
#120=EDGE_LOOP('',(#103,#111,#118,#119));
#121=FACE_OUTER_BOUND('',#120,.T.);
#122=CARTESIAN_POINT('',(3.36175605010986,5.26987757110596,0.781500000000000));
#123=DIRECTION('',(0.00000000000000,1.00000000000000,0.00000000000000));
#124=DIRECTION('',(-0.707106781186546,0.00000000000000,-0.707106781186549));
#125=AXIS2_PLACEMENT_3D('',#122,#123,#124);
#126=CYLINDRICAL_SURFACE('',#125,0.0620000000000000);
#127=ADVANCED_FACE('',(#121),#126,.T.);
#128=CARTESIAN_POINT('',(2.61175605010986,11.2698775711060,0.843500000000001));
#129=VERTEX_POINT('',#128);
#130=CARTESIAN_POINT('',(3.36175605010986,11.2698775711060,0.843500000000001));
#131=DIRECTION('',(-1.00000000000000,0.00000000000000,0.00000000000000));
#132=VECTOR('',#131,1.00000000000000);
#133=LINE('',#130,#132);
#134=EDGE_CURVE('',#96,#129,#133,.T.);
#135=ORIENTED_EDGE('',*,*,#134,.T.);
#136=CARTESIAN_POINT('',(2.61175605010986,5.26987757110596,0.843500000000001));
#137=VERTEX_POINT('',#136);
#138=CARTESIAN_POINT('',(2.61175605010986,5.26987757110596,0.843500000000001));
#139=DIRECTION('',(0.00000000000000,1.00000000000000,0.00000000000000));
#140=VECTOR('',#139,1.00000000000000);
#141=LINE('',#138,#140);
#142=EDGE_CURVE('',#137,#129,#141,.T.);
#143=ORIENTED_EDGE('',*,*,#142,.F.);
#144=CARTESIAN_POINT('',(3.36175605010986,5.26987757110596,0.843500000000001));
#145=DIRECTION('',(-1.00000000000000,0.00000000000000,0.00000000000000));
#146=VECTOR('',#145,1.00000000000000);
#147=LINE('',#144,#146);
#148=EDGE_CURVE('',#105,#137,#147,.T.);
#149=ORIENTED_EDGE('',*,*,#148,.F.);
#150=ORIENTED_EDGE('',*,*,#110,.T.);
#151=EDGE_LOOP('',(#135,#143,#149,#150));
#152=FACE_OUTER_BOUND('',#151,.T.);
#153=CARTESIAN_POINT('',(2.98675605010986,5.26987757110596,0.843500000000001));
#154=DIRECTION('',(0.00000000000000,-0.00000000000000,1.00000000000000));
#155=DIRECTION('',(1.00000000000000,-0.00000000000000,-0.00000000000000));
#156=AXIS2_PLACEMENT_3D('',#153,#154,#155);
#157=PLANE('',#156);
#158=ADVANCED_FACE('',(#152),#157,.T.);
#159=CARTESIAN_POINT('',(2.54975605010986,11.2698775711060,0.781500000000000));
#160=VERTEX_POINT('',#159);
#161=CARTESIAN_POINT('',(2.61175605010986,11.2698775711060,0.781500000000000));
#162=DIRECTION('',(0.00000000000000,-1.00000000000000,6.12323399573677E-17));
#163=DIRECTION('',(1.00000000000000,0.00000000000000,0.00000000000000));
#164=AXIS2_PLACEMENT_3D('',#161,#162,#163);
#165=CIRCLE('',#164,0.0620000000000000);
#166=EDGE_CURVE('',#129,#160,#165,.T.);
#167=ORIENTED_EDGE('',*,*,#166,.T.);
#168=CARTESIAN_POINT('',(2.54975605010986,5.26987757110596,0.781500000000000));
#169=VERTEX_POINT('',#168);
#170=CARTESIAN_POINT('',(2.54975605010986,5.26987757110596,0.781500000000000));
#171=DIRECTION('',(0.00000000000000,1.00000000000000,0.00000000000000));
#172=VECTOR('',#171,1.00000000000000);
#173=LINE('',#170,#172);
#174=EDGE_CURVE('',#169,#160,#173,.T.);
#175=ORIENTED_EDGE('',*,*,#174,.F.);
#176=CARTESIAN_POINT('',(2.61175605010986,5.26987757110596,0.781500000000000));
#177=DIRECTION('',(0.00000000000000,-1.00000000000000,6.12323399573677E-17));
#178=DIRECTION('',(1.00000000000000,0.00000000000000,0.00000000000000));
#179=AXIS2_PLACEMENT_3D('',#176,#177,#178);
#180=CIRCLE('',#179,0.0620000000000000);
#181=EDGE_CURVE('',#137,#169,#180,.T.);
#182=ORIENTED_EDGE('',*,*,#181,.F.);
#183=ORIENTED_EDGE('',*,*,#142,.T.);
#184=EDGE_LOOP('',(#167,#175,#182,#183));
#185=FACE_OUTER_BOUND('',#184,.T.);
#186=CARTESIAN_POINT('',(2.61175605010986,5.26987757110596,0.781500000000000));
#187=DIRECTION('',(0.00000000000000,1.00000000000000,0.00000000000000));
#188=DIRECTION('',(1.00000000000000,-0.00000000000000,0.00000000000000));
#189=AXIS2_PLACEMENT_3D('',#186,#187,#188);
#190=CYLINDRICAL_SURFACE('',#189,0.0620000000000000);
#191=ADVANCED_FACE('',(#185),#190,.T.);
#192=CARTESIAN_POINT('',(2.54975605010986,11.2698775711060,-0.218500000000000));
#193=VERTEX_POINT('',#192);
#194=CARTESIAN_POINT('',(2.54975605010986,11.2698775711060,0.781500000000000));
#195=DIRECTION('',(0.00000000000000,0.00000000000000,-1.00000000000000));
#196=VECTOR('',#195,1.00000000000000);
#197=LINE('',#194,#196);
#198=EDGE_CURVE('',#160,#193,#197,.T.);
#199=ORIENTED_EDGE('',*,*,#198,.T.);
#200=CARTESIAN_POINT('',(2.54975605010986,5.26987757110596,-0.218500000000000));
#201=VERTEX_POINT('',#200);
#202=CARTESIAN_POINT('',(2.54975605010986,5.26987757110596,-0.218500000000000));
#203=DIRECTION('',(0.00000000000000,1.00000000000000,0.00000000000000));
#204=VECTOR('',#203,1.00000000000000);
#205=LINE('',#202,#204);
#206=EDGE_CURVE('',#201,#193,#205,.T.);
#207=ORIENTED_EDGE('',*,*,#206,.F.);
#208=CARTESIAN_POINT('',(2.54975605010986,5.26987757110596,0.781500000000000));
#209=DIRECTION('',(0.00000000000000,0.00000000000000,-1.00000000000000));
#210=VECTOR('',#209,1.00000000000000);
#211=LINE('',#208,#210);
#212=EDGE_CURVE('',#169,#201,#211,.T.);
#213=ORIENTED_EDGE('',*,*,#212,.F.);
#214=ORIENTED_EDGE('',*,*,#174,.T.);
#215=EDGE_LOOP('',(#199,#207,#213,#214));
#216=FACE_OUTER_BOUND('',#215,.T.);
#217=CARTESIAN_POINT('',(2.54975605010986,5.26987757110596,0.281500000000000));
#218=DIRECTION('',(-1.00000000000000,0.00000000000000,0.00000000000000));
#219=DIRECTION('',(-0.00000000000000,-0.00000000000000,1.00000000000000));
#220=AXIS2_PLACEMENT_3D('',#217,#218,#219);
#221=PLANE('',#220);
#222=ADVANCED_FACE('',(#216),#221,.T.);
#223=CARTESIAN_POINT('',(2.61175605010986,11.2698775711060,-0.218500000000000));
#224=VERTEX_POINT('',#223);
#225=CARTESIAN_POINT('',(2.61175605010986,11.2698775711060,-0.218500000000000));
#226=DIRECTION('',(1.00000000000000,0.00000000000000,0.00000000000000));
#227=VECTOR('',#226,1.00000000000000);
#228=LINE('',#225,#227);
#229=EDGE_CURVE('',#193,#224,#228,.T.);
#230=ORIENTED_EDGE('',*,*,#229,.T.);
#231=CARTESIAN_POINT('',(2.61175605010986,5.26987757110596,-0.218500000000000));
#232=VERTEX_POINT('',#231);
#233=CARTESIAN_POINT('',(2.61175605010986,5.26987757110596,-0.218500000000000));
#234=DIRECTION('',(0.00000000000000,1.00000000000000,0.00000000000000));
#235=VECTOR('',#234,1.00000000000000);
#236=LINE('',#233,#235);
#237=EDGE_CURVE('',#232,#224,#236,.T.);
#238=ORIENTED_EDGE('',*,*,#237,.F.);
#239=CARTESIAN_POINT('',(2.61175605010986,5.26987757110596,-0.218500000000000));
#240=DIRECTION('',(-1.00000000000000,0.00000000000000,0.00000000000000));
#241=VECTOR('',#240,1.00000000000000);
#242=LINE('',#239,#241);
#243=EDGE_CURVE('',#232,#201,#242,.T.);
#244=ORIENTED_EDGE('',*,*,#243,.T.);
#245=ORIENTED_EDGE('',*,*,#206,.T.);
#246=EDGE_LOOP('',(#230,#238,#244,#245));
#247=FACE_OUTER_BOUND('',#246,.T.);
#248=CARTESIAN_POINT('',(2.58075605010986,5.26987757110596,-0.218500000000000));
#249=DIRECTION('',(0.00000000000000,0.00000000000000,-1.00000000000000));
#250=DIRECTION('',(-1.00000000000000,0.00000000000000,0.00000000000000));
#251=AXIS2_PLACEMENT_3D('',#248,#249,#250);
#252=PLANE('',#251);
#253=ADVANCED_FACE('',(#247),#252,.T.);
#254=CARTESIAN_POINT('',(2.61175605010986,11.2698775711060,0.781500000000000));
#255=VERTEX_POINT('',#254);
#256=CARTESIAN_POINT('',(2.61175605010986,11.2698775711060,0.781500000000000));
#257=DIRECTION('',(0.00000000000000,0.00000000000000,1.00000000000000));
#258=VECTOR('',#257,1.00000000000000);
#259=LINE('',#256,#258);
#260=EDGE_CURVE('',#224,#255,#259,.T.);
#261=ORIENTED_EDGE('',*,*,#260,.T.);
#262=CARTESIAN_POINT('',(2.61175605010986,5.26987757110596,0.781500000000000));
#263=VERTEX_POINT('',#262);
#264=CARTESIAN_POINT('',(2.61175605010986,5.26987757110596,0.781500000000000));
#265=DIRECTION('',(0.00000000000000,1.00000000000000,0.00000000000000));
#266=VECTOR('',#265,1.00000000000000);
#267=LINE('',#264,#266);
#268=EDGE_CURVE('',#263,#255,#267,.T.);
#269=ORIENTED_EDGE('',*,*,#268,.F.);
#270=CARTESIAN_POINT('',(2.61175605010986,5.26987757110596,0.781500000000000));
#271=DIRECTION('',(0.00000000000000,0.00000000000000,-1.00000000000000));
#272=VECTOR('',#271,1.00000000000000);
#273=LINE('',#270,#272);
#274=EDGE_CURVE('',#263,#232,#273,.T.);
#275=ORIENTED_EDGE('',*,*,#274,.T.);
#276=ORIENTED_EDGE('',*,*,#237,.T.);
#277=EDGE_LOOP('',(#261,#269,#275,#276));
#278=FACE_OUTER_BOUND('',#277,.T.);
#279=CARTESIAN_POINT('',(2.61175605010986,5.26987757110596,0.281500000000000));
#280=DIRECTION('',(1.00000000000000,-0.00000000000000,0.00000000000000));
#281=DIRECTION('',(0.00000000000000,0.00000000000000,-1.00000000000000));
#282=AXIS2_PLACEMENT_3D('',#279,#280,#281);
#283=PLANE('',#282);
#284=ADVANCED_FACE('',(#278),#283,.T.);
#285=CARTESIAN_POINT('',(3.36175605010986,11.2698775711060,0.781500000000000));
#286=VERTEX_POINT('',#285);
#287=CARTESIAN_POINT('',(3.36175605010986,11.2698775711060,0.781500000000000));
#288=DIRECTION('',(1.00000000000000,0.00000000000000,0.00000000000000));
#289=VECTOR('',#288,1.00000000000000);
#290=LINE('',#287,#289);
#291=EDGE_CURVE('',#255,#286,#290,.T.);
#292=ORIENTED_EDGE('',*,*,#291,.T.);
#293=CARTESIAN_POINT('',(3.36175605010986,5.26987757110596,0.781500000000000));
#294=VERTEX_POINT('',#293);
#295=CARTESIAN_POINT('',(3.36175605010986,5.26987757110596,0.781500000000000));
#296=DIRECTION('',(0.00000000000000,1.00000000000000,0.00000000000000));
#297=VECTOR('',#296,1.00000000000000);
#298=LINE('',#295,#297);
#299=EDGE_CURVE('',#294,#286,#298,.T.);
#300=ORIENTED_EDGE('',*,*,#299,.F.);
#301=CARTESIAN_POINT('',(3.36175605010986,5.26987757110596,0.781500000000000));
#302=DIRECTION('',(-1.00000000000000,0.00000000000000,0.00000000000000));
#303=VECTOR('',#302,1.00000000000000);
#304=LINE('',#301,#303);
#305=EDGE_CURVE('',#294,#263,#304,.T.);
#306=ORIENTED_EDGE('',*,*,#305,.T.);
#307=ORIENTED_EDGE('',*,*,#268,.T.);
#308=EDGE_LOOP('',(#292,#300,#306,#307));
#309=FACE_OUTER_BOUND('',#308,.T.);
#310=CARTESIAN_POINT('',(2.98675605010986,5.26987757110596,0.781500000000000));
#311=DIRECTION('',(0.00000000000000,0.00000000000000,-1.00000000000000));
#312=DIRECTION('',(-1.00000000000000,0.00000000000000,0.00000000000000));
#313=AXIS2_PLACEMENT_3D('',#310,#311,#312);
#314=PLANE('',#313);
#315=ADVANCED_FACE('',(#309),#314,.T.);
#316=CARTESIAN_POINT('',(3.36175605010986,11.2698775711060,-0.781499999999999));
#317=DIRECTION('',(-0.00000000000000,-0.00000000000000,-1.00000000000000));
#318=VECTOR('',#317,1.00000000000000);
#319=LINE('',#316,#318);
#320=EDGE_CURVE('',#286,#25,#319,.T.);
#321=ORIENTED_EDGE('',*,*,#320,.T.);
#322=ORIENTED_EDGE('',*,*,#54,.F.);
#323=CARTESIAN_POINT('',(3.36175605010986,5.26987757110596,-0.781499999999999));
#324=DIRECTION('',(0.00000000000000,0.00000000000000,1.00000000000000));
#325=VECTOR('',#324,1.00000000000000);
#326=LINE('',#323,#325);
#327=EDGE_CURVE('',#43,#294,#326,.T.);
#328=ORIENTED_EDGE('',*,*,#327,.T.);
#329=ORIENTED_EDGE('',*,*,#299,.T.);
#330=EDGE_LOOP('',(#321,#322,#328,#329));
#331=FACE_OUTER_BOUND('',#330,.T.);
#332=CARTESIAN_POINT('',(3.36175605010986,5.26987757110596,4.44089209850063E-16));
#333=DIRECTION('',(-1.00000000000000,0.00000000000000,0.00000000000000));
#334=DIRECTION('',(0.00000000000000,0.00000000000000,1.00000000000000));
#335=AXIS2_PLACEMENT_3D('',#332,#333,#334);
#336=PLANE('',#335);
#337=ADVANCED_FACE('',(#331),#336,.T.);
#338=ORIENTED_EDGE('',*,*,#32,.F.);
#339=ORIENTED_EDGE('',*,*,#320,.F.);
#340=ORIENTED_EDGE('',*,*,#291,.F.);
#341=ORIENTED_EDGE('',*,*,#260,.F.);
#342=ORIENTED_EDGE('',*,*,#229,.F.);
#343=ORIENTED_EDGE('',*,*,#198,.F.);
#344=ORIENTED_EDGE('',*,*,#166,.F.);
#345=ORIENTED_EDGE('',*,*,#134,.F.);
#346=ORIENTED_EDGE('',*,*,#102,.F.);
#347=ORIENTED_EDGE('',*,*,#70,.F.);
#348=EDGE_LOOP('',(#338,#339,#340,#341,#342,#343,#344,#345,#346,#347));
#349=FACE_OUTER_BOUND('',#348,.T.);
#350=CARTESIAN_POINT('',(3.36175605010986,11.2698775711060,-0.293336025000000));
#351=DIRECTION('',(0.00000000000000,1.00000000000000,0.00000000000000));
#352=DIRECTION('',(-1.00000000000000,0.00000000000000,0.00000000000000));
#353=AXIS2_PLACEMENT_3D('',#350,#351,#352);
#354=PLANE('',#353);
#355=ADVANCED_FACE('',(#349),#354,.T.);
#356=ORIENTED_EDGE('',*,*,#327,.F.);
#357=ORIENTED_EDGE('',*,*,#48,.T.);
#358=ORIENTED_EDGE('',*,*,#84,.T.);
#359=ORIENTED_EDGE('',*,*,#117,.T.);
#360=ORIENTED_EDGE('',*,*,#148,.T.);
#361=ORIENTED_EDGE('',*,*,#181,.T.);
#362=ORIENTED_EDGE('',*,*,#212,.T.);
#363=ORIENTED_EDGE('',*,*,#243,.F.);
#364=ORIENTED_EDGE('',*,*,#274,.F.);
#365=ORIENTED_EDGE('',*,*,#305,.F.);
#366=EDGE_LOOP('',(#356,#357,#358,#359,#360,#361,#362,#363,#364,#365));
#367=FACE_OUTER_BOUND('',#366,.T.);
#368=CARTESIAN_POINT('',(3.36175605010986,5.26987757110596,-0.293336025000000));
#369=DIRECTION('',(-0.00000000000000,1.00000000000000,-0.00000000000000));
#370=DIRECTION('',(-1.00000000000000,-0.00000000000000,0.00000000000000));
#371=AXIS2_PLACEMENT_3D('',#368,#369,#370);
#372=PLANE('',#371);
#373=ADVANCED_FACE('',(#367),#372,.F.);
#374=CLOSED_SHELL('',(#63,#94,#127,#158,#191,#222,#253,#284,#315,#337,#355,#373));
#375=MANIFOLD_SOLID_BREP('',#374);
#376=COLOUR_RGB('',1.00000000000000,0.00000000000000,0.00000000000000);
#377=FILL_AREA_STYLE_COLOUR('',#376);
#378=FILL_AREA_STYLE('',(#377));
#379=SURFACE_STYLE_FILL_AREA(#378);
#380=SURFACE_SIDE_STYLE('',(#379));
#381=SURFACE_STYLE_USAGE(.BOTH.,#380);
#382=PRESENTATION_STYLE_ASSIGNMENT((#381));
#383=STYLED_ITEM('',(#382),#375);
#384=ADVANCED_BREP_SHAPE_REPRESENTATION('',(#375,#23),#18);
#385=PRODUCT('', '', ' ',(#2));
#386=PRODUCT_DEFINITION_FORMATION_WITH_SPECIFIED_SOURCE (' ', ' ', #385, .NOT_KNOWN.) ;
#387=PRODUCT_CATEGORY('part','') ;
#388=PRODUCT_RELATED_PRODUCT_CATEGORY('detail', ' ', (#385)) ;
#389=PRODUCT_CATEGORY_RELATIONSHIP(' ', ' ', #387, #388);
#390=PRODUCT_DEFINITION('', '', #386, #1);
#391=PRODUCT_DEFINITION_SHAPE('NONE', 'NONE', #390);
#392=SHAPE_DEFINITION_REPRESENTATION(#391, #384);
#393=PRESENTATION_LAYER_ASSIGNMENT('1','Unnamed [1]',(#375));
#394=MECHANICAL_DESIGN_GEOMETRIC_PRESENTATION_REPRESENTATION('',(#383), #18);
ENDSEC;
END-ISO-10303-21;
