ISO-10303-21;
HEADER;
FILE_DESCRIPTION((''),'2;1');
FILE_NAME('C:/Program Files/Kubotek/KeyCreatorPro.2021.SP0/STEP/SG1913.STP', '2021-03-04T13:39:20',(''), (''), 'KCM Version 2.0.6974.6974', 'KeyCreator Pro', '');
FILE_SCHEMA(('AUTOMOTIVE_DESIGN'));
ENDSEC;
DATA;
#1=PRODUCT_DEFINITION_CONTEXT('',#4,'design');
#2=PRODUCT_CONTEXT('',#4,'mechanical');
#3=APPLICATION_PROTOCOL_DEFINITION('International Standard','automotive_design',2001,#4);
#4=APPLICATION_CONTEXT('automotive design');
#10=DIMENSIONAL_EXPONENTS(1.0,0.0,0.0,0.0,0.0,0.0,0.0);
#11=DIMENSIONAL_EXPONENTS(0.0,0.0,0.0,0.0,0.0,0.0,0.0);
#12=(NAMED_UNIT(#10)LENGTH_UNIT()SI_UNIT(.MILLI.,.METRE.));
#13=(NAMED_UNIT(#11)PLANE_ANGLE_UNIT()SI_UNIT($,.RADIAN.));
#14=(NAMED_UNIT(#11)SOLID_ANGLE_UNIT()SI_UNIT($,.STERADIAN.));
#15=LENGTH_MEASURE_WITH_UNIT(LENGTH_MEASURE(25.4),#12);
#16= (CONVERSION_BASED_UNIT('INCH',#15)LENGTH_UNIT()NAMED_UNIT(#10));
#17=UNCERTAINTY_MEASURE_WITH_UNIT(LENGTH_MEASURE(1.0E-006),#16,'','');
#18=(GEOMETRIC_REPRESENTATION_CONTEXT(3)GLOBAL_UNCERTAINTY_ASSIGNED_CONTEXT((#17))GLOBAL_UNIT_ASSIGNED_CONTEXT((#16,#13,#14))REPRESENTATION_CONTEXT('NONE','WORKSPACE'));
#20=CARTESIAN_POINT('',(0.00000000000000,0.00000000000000,0.00000000000000));
#21=DIRECTION('',(0.00000000000000,0.00000000000000,1.00000000000000));
#22=DIRECTION('',(1.00000000000000,0.00000000000000,0.00000000000000));
#23=AXIS2_PLACEMENT_3D('',#20,#21,#22);
#24=CARTESIAN_POINT('',(0.0800000000000000,3.50000000000000,-0.420000000000000));
#25=VERTEX_POINT('',#24);
#26=CARTESIAN_POINT('',(0.0800000000000000,3.50000000000000,0.420000000000000));
#27=VERTEX_POINT('',#26);
#28=CARTESIAN_POINT('',(0.0800000000000000,3.50000000000000,0.420000000000000));
#29=DIRECTION('',(0.00000000000000,6.60847038467355E-17,1.00000000000000));
#30=VECTOR('',#29,1.00000000000000);
#31=LINE('',#28,#30);
#32=EDGE_CURVE('',#25,#27,#31,.T.);
#33=ORIENTED_EDGE('',*,*,#32,.T.);
#34=CARTESIAN_POINT('',(0.0800000000000000,-2.50000000000000,0.420000000000000));
#35=VERTEX_POINT('',#34);
#36=CARTESIAN_POINT('',(0.0800000000000000,0.500000000000000,0.420000000000000));
#37=DIRECTION('',(0.00000000000000,1.00000000000000,-7.40148683083438E-17));
#38=VECTOR('',#37,1.00000000000000);
#39=LINE('',#36,#38);
#40=EDGE_CURVE('',#35,#27,#39,.T.);
#41=ORIENTED_EDGE('',*,*,#40,.F.);
#42=CARTESIAN_POINT('',(0.0800000000000000,-2.50000000000000,-0.420000000000000));
#43=VERTEX_POINT('',#42);
#44=CARTESIAN_POINT('',(0.0800000000000000,-2.50000000000000,0.420000000000000));
#45=DIRECTION('',(0.00000000000000,-6.60847038467355E-17,-1.00000000000000));
#46=VECTOR('',#45,1.00000000000000);
#47=LINE('',#44,#46);
#48=EDGE_CURVE('',#35,#43,#47,.T.);
#49=ORIENTED_EDGE('',*,*,#48,.T.);
#50=CARTESIAN_POINT('',(0.0800000000000000,0.500000000000000,-0.420000000000000));
#51=DIRECTION('',(0.00000000000000,1.00000000000000,-7.40148683083438E-17));
#52=VECTOR('',#51,1.00000000000000);
#53=LINE('',#50,#52);
#54=EDGE_CURVE('',#43,#25,#53,.T.);
#55=ORIENTED_EDGE('',*,*,#54,.T.);
#56=EDGE_LOOP('',(#33,#41,#49,#55));
#57=FACE_OUTER_BOUND('',#56,.T.);
#58=CARTESIAN_POINT('',(0.0800000000000000,0.500000000000000,5.55111512312578E-17));
#59=DIRECTION('',(1.00000000000000,0.00000000000000,0.00000000000000));
#60=DIRECTION('',(0.00000000000000,-6.60847038467355E-17,-1.00000000000000));
#61=AXIS2_PLACEMENT_3D('',#58,#59,#60);
#62=PLANE('',#61);
#63=ADVANCED_FACE('',(#57),#62,.T.);
#64=CARTESIAN_POINT('',(0.920000000000000,3.50000000000000,0.420000000000000));
#65=VERTEX_POINT('',#64);
#66=CARTESIAN_POINT('',(0.920000000000000,3.50000000000000,0.420000000000000));
#67=DIRECTION('',(1.00000000000000,0.00000000000000,0.00000000000000));
#68=VECTOR('',#67,1.00000000000000);
#69=LINE('',#66,#68);
#70=EDGE_CURVE('',#27,#65,#69,.T.);
#71=ORIENTED_EDGE('',*,*,#70,.T.);
#72=CARTESIAN_POINT('',(0.920000000000000,-2.50000000000000,0.420000000000000));
#73=VERTEX_POINT('',#72);
#74=CARTESIAN_POINT('',(0.920000000000000,0.500000000000000,0.420000000000000));
#75=DIRECTION('',(0.00000000000000,1.00000000000000,-7.40148683083438E-17));
#76=VECTOR('',#75,1.00000000000000);
#77=LINE('',#74,#76);
#78=EDGE_CURVE('',#73,#65,#77,.T.);
#79=ORIENTED_EDGE('',*,*,#78,.F.);
#80=CARTESIAN_POINT('',(0.920000000000000,-2.50000000000000,0.420000000000000));
#81=DIRECTION('',(-1.00000000000000,0.00000000000000,0.00000000000000));
#82=VECTOR('',#81,1.00000000000000);
#83=LINE('',#80,#82);
#84=EDGE_CURVE('',#73,#35,#83,.T.);
#85=ORIENTED_EDGE('',*,*,#84,.T.);
#86=ORIENTED_EDGE('',*,*,#40,.T.);
#87=EDGE_LOOP('',(#71,#79,#85,#86));
#88=FACE_OUTER_BOUND('',#87,.T.);
#89=CARTESIAN_POINT('',(0.500000000000000,0.500000000000000,0.420000000000000));
#90=DIRECTION('',(-0.00000000000000,-7.40148683083438E-17,-1.00000000000000));
#91=DIRECTION('',(-1.00000000000000,0.00000000000000,0.00000000000000));
#92=AXIS2_PLACEMENT_3D('',#89,#90,#91);
#93=PLANE('',#92);
#94=ADVANCED_FACE('',(#88),#93,.T.);
#95=CARTESIAN_POINT('',(0.920000000000000,3.50000000000000,-0.420000000000000));
#96=VERTEX_POINT('',#95);
#97=CARTESIAN_POINT('',(0.920000000000000,3.50000000000000,-0.420000000000000));
#98=DIRECTION('',(-0.00000000000000,-6.60847038467355E-17,-1.00000000000000));
#99=VECTOR('',#98,1.00000000000000);
#100=LINE('',#97,#99);
#101=EDGE_CURVE('',#65,#96,#100,.T.);
#102=ORIENTED_EDGE('',*,*,#101,.T.);
#103=CARTESIAN_POINT('',(0.920000000000000,-2.50000000000000,-0.420000000000000));
#104=VERTEX_POINT('',#103);
#105=CARTESIAN_POINT('',(0.920000000000000,0.500000000000000,-0.420000000000000));
#106=DIRECTION('',(0.00000000000000,-1.00000000000000,7.40148683083438E-17));
#107=VECTOR('',#106,1.00000000000000);
#108=LINE('',#105,#107);
#109=EDGE_CURVE('',#96,#104,#108,.T.);
#110=ORIENTED_EDGE('',*,*,#109,.T.);
#111=CARTESIAN_POINT('',(0.920000000000000,-2.50000000000000,-0.420000000000000));
#112=DIRECTION('',(0.00000000000000,6.60847038467355E-17,1.00000000000000));
#113=VECTOR('',#112,1.00000000000000);
#114=LINE('',#111,#113);
#115=EDGE_CURVE('',#104,#73,#114,.T.);
#116=ORIENTED_EDGE('',*,*,#115,.T.);
#117=ORIENTED_EDGE('',*,*,#78,.T.);
#118=EDGE_LOOP('',(#102,#110,#116,#117));
#119=FACE_OUTER_BOUND('',#118,.T.);
#120=CARTESIAN_POINT('',(0.920000000000000,0.500000000000000,1.11022302462516E-16));
#121=DIRECTION('',(-1.00000000000000,0.00000000000000,0.00000000000000));
#122=DIRECTION('',(0.00000000000000,6.60847038467355E-17,1.00000000000000));
#123=AXIS2_PLACEMENT_3D('',#120,#121,#122);
#124=PLANE('',#123);
#125=ADVANCED_FACE('',(#119),#124,.T.);
#126=CARTESIAN_POINT('',(0.0800000000000000,3.50000000000000,-0.420000000000000));
#127=DIRECTION('',(-1.00000000000000,-0.00000000000000,-0.00000000000000));
#128=VECTOR('',#127,1.00000000000000);
#129=LINE('',#126,#128);
#130=EDGE_CURVE('',#96,#25,#129,.T.);
#131=ORIENTED_EDGE('',*,*,#130,.T.);
#132=ORIENTED_EDGE('',*,*,#54,.F.);
#133=CARTESIAN_POINT('',(0.0800000000000000,-2.50000000000000,-0.420000000000000));
#134=DIRECTION('',(1.00000000000000,0.00000000000000,0.00000000000000));
#135=VECTOR('',#134,1.00000000000000);
#136=LINE('',#133,#135);
#137=EDGE_CURVE('',#43,#104,#136,.T.);
#138=ORIENTED_EDGE('',*,*,#137,.T.);
#139=ORIENTED_EDGE('',*,*,#109,.F.);
#140=EDGE_LOOP('',(#131,#132,#138,#139));
#141=FACE_OUTER_BOUND('',#140,.T.);
#142=CARTESIAN_POINT('',(0.500000000000000,0.500000000000000,-0.420000000000000));
#143=DIRECTION('',(-0.00000000000000,7.40148683083438E-17,1.00000000000000));
#144=DIRECTION('',(1.00000000000000,0.00000000000000,0.00000000000000));
#145=AXIS2_PLACEMENT_3D('',#142,#143,#144);
#146=PLANE('',#145);
#147=ADVANCED_FACE('',(#141),#146,.T.);
#148=CARTESIAN_POINT('',(0.0500000000000000,3.50000000000000,0.500000000000000));
#149=VERTEX_POINT('',#148);
#150=CARTESIAN_POINT('',(0.00000000000000,3.50000000000000,0.450000000000000));
#151=VERTEX_POINT('',#150);
#152=CARTESIAN_POINT('',(0.0500000000000000,3.50000000000000,0.450000000000000));
#153=DIRECTION('',(0.00000000000000,-1.00000000000000,6.12323399573677E-17));
#154=DIRECTION('',(-1.00000000000000,0.00000000000000,0.00000000000000));
#155=AXIS2_PLACEMENT_3D('',#152,#153,#154);
#156=CIRCLE('',#155,0.0500000000000000);
#157=EDGE_CURVE('',#149,#151,#156,.T.);
#158=ORIENTED_EDGE('',*,*,#157,.T.);
#159=CARTESIAN_POINT('',(0.00000000000000,-2.50000000000000,0.450000000000000));
#160=VERTEX_POINT('',#159);
#161=CARTESIAN_POINT('',(0.00000000000000,0.500000000000000,0.450000000000000));
#162=DIRECTION('',(0.00000000000000,-1.00000000000000,7.40148683083438E-17));
#163=VECTOR('',#162,1.00000000000000);
#164=LINE('',#161,#163);
#165=EDGE_CURVE('',#151,#160,#164,.T.);
#166=ORIENTED_EDGE('',*,*,#165,.T.);
#167=CARTESIAN_POINT('',(0.0500000000000000,-2.50000000000000,0.500000000000000));
#168=VERTEX_POINT('',#167);
#169=CARTESIAN_POINT('',(0.0500000000000000,-2.50000000000000,0.450000000000000));
#170=DIRECTION('',(0.00000000000000,1.00000000000000,-6.12323399573677E-17));
#171=DIRECTION('',(-1.00000000000000,0.00000000000000,0.00000000000000));
#172=AXIS2_PLACEMENT_3D('',#169,#170,#171);
#173=CIRCLE('',#172,0.0500000000000000);
#174=EDGE_CURVE('',#160,#168,#173,.T.);
#175=ORIENTED_EDGE('',*,*,#174,.T.);
#176=CARTESIAN_POINT('',(0.0500000000000000,0.500000000000000,0.500000000000000));
#177=DIRECTION('',(0.00000000000000,1.00000000000000,-7.40148683083438E-17));
#178=VECTOR('',#177,1.00000000000000);
#179=LINE('',#176,#178);
#180=EDGE_CURVE('',#168,#149,#179,.T.);
#181=ORIENTED_EDGE('',*,*,#180,.T.);
#182=EDGE_LOOP('',(#158,#166,#175,#181));
#183=FACE_OUTER_BOUND('',#182,.T.);
#184=CARTESIAN_POINT('',(0.0500000000000000,0.500000000000000,0.450000000000000));
#185=DIRECTION('',(0.00000000000000,1.00000000000000,-7.40148683083438E-17));
#186=DIRECTION('',(0.707106781186548,0.00000000000000,-0.707106781186547));
#187=AXIS2_PLACEMENT_3D('',#184,#185,#186);
#188=CYLINDRICAL_SURFACE('',#187,0.0500000000000000);
#189=ADVANCED_FACE('',(#183),#188,.T.);
#190=CARTESIAN_POINT('',(0.00000000000000,3.50000000000000,-0.450000000000000));
#191=VERTEX_POINT('',#190);
#192=CARTESIAN_POINT('',(0.00000000000000,3.50000000000000,0.450000000000000));
#193=DIRECTION('',(0.00000000000000,-6.16790569236198E-17,-1.00000000000000));
#194=VECTOR('',#193,1.00000000000000);
#195=LINE('',#192,#194);
#196=EDGE_CURVE('',#151,#191,#195,.T.);
#197=ORIENTED_EDGE('',*,*,#196,.T.);
#198=CARTESIAN_POINT('',(0.00000000000000,-2.50000000000000,-0.450000000000000));
#199=VERTEX_POINT('',#198);
#200=CARTESIAN_POINT('',(0.00000000000000,0.500000000000000,-0.450000000000000));
#201=DIRECTION('',(0.00000000000000,1.00000000000000,-7.40148683083438E-17));
#202=VECTOR('',#201,1.00000000000000);
#203=LINE('',#200,#202);
#204=EDGE_CURVE('',#199,#191,#203,.T.);
#205=ORIENTED_EDGE('',*,*,#204,.F.);
#206=CARTESIAN_POINT('',(0.00000000000000,-2.50000000000000,0.450000000000000));
#207=DIRECTION('',(0.00000000000000,6.16790569236198E-17,1.00000000000000));
#208=VECTOR('',#207,1.00000000000000);
#209=LINE('',#206,#208);
#210=EDGE_CURVE('',#199,#160,#209,.T.);
#211=ORIENTED_EDGE('',*,*,#210,.T.);
#212=ORIENTED_EDGE('',*,*,#165,.F.);
#213=EDGE_LOOP('',(#197,#205,#211,#212));
#214=FACE_OUTER_BOUND('',#213,.T.);
#215=CARTESIAN_POINT('',(0.00000000000000,0.500000000000000,5.55111512312578E-17));
#216=DIRECTION('',(-1.00000000000000,0.00000000000000,-0.00000000000000));
#217=DIRECTION('',(-0.00000000000000,6.16790569236198E-17,1.00000000000000));
#218=AXIS2_PLACEMENT_3D('',#215,#216,#217);
#219=PLANE('',#218);
#220=ADVANCED_FACE('',(#214),#219,.T.);
#221=CARTESIAN_POINT('',(0.0500000000000000,3.50000000000000,-0.500000000000000));
#222=VERTEX_POINT('',#221);
#223=CARTESIAN_POINT('',(0.0500000000000000,3.50000000000000,-0.450000000000000));
#224=DIRECTION('',(0.00000000000000,-1.00000000000000,6.12323399573677E-17));
#225=DIRECTION('',(0.00000000000000,-6.12323399573677E-17,-1.00000000000000));
#226=AXIS2_PLACEMENT_3D('',#223,#224,#225);
#227=CIRCLE('',#226,0.0500000000000000);
#228=EDGE_CURVE('',#191,#222,#227,.T.);
#229=ORIENTED_EDGE('',*,*,#228,.T.);
#230=CARTESIAN_POINT('',(0.0500000000000000,-2.50000000000000,-0.500000000000000));
#231=VERTEX_POINT('',#230);
#232=CARTESIAN_POINT('',(0.0500000000000000,0.500000000000000,-0.500000000000000));
#233=DIRECTION('',(0.00000000000000,-1.00000000000000,7.40148683083438E-17));
#234=VECTOR('',#233,1.00000000000000);
#235=LINE('',#232,#234);
#236=EDGE_CURVE('',#222,#231,#235,.T.);
#237=ORIENTED_EDGE('',*,*,#236,.T.);
#238=CARTESIAN_POINT('',(0.0500000000000000,-2.50000000000000,-0.450000000000000));
#239=DIRECTION('',(0.00000000000000,1.00000000000000,-6.12323399573677E-17));
#240=DIRECTION('',(0.00000000000000,-6.12323399573677E-17,-1.00000000000000));
#241=AXIS2_PLACEMENT_3D('',#238,#239,#240);
#242=CIRCLE('',#241,0.0500000000000000);
#243=EDGE_CURVE('',#231,#199,#242,.T.);
#244=ORIENTED_EDGE('',*,*,#243,.T.);
#245=ORIENTED_EDGE('',*,*,#204,.T.);
#246=EDGE_LOOP('',(#229,#237,#244,#245));
#247=FACE_OUTER_BOUND('',#246,.T.);
#248=CARTESIAN_POINT('',(0.0500000000000000,0.500000000000000,-0.450000000000000));
#249=DIRECTION('',(0.00000000000000,1.00000000000000,-7.40148683083438E-17));
#250=DIRECTION('',(0.707106781186548,0.00000000000000,0.707106781186547));
#251=AXIS2_PLACEMENT_3D('',#248,#249,#250);
#252=CYLINDRICAL_SURFACE('',#251,0.0500000000000000);
#253=ADVANCED_FACE('',(#247),#252,.T.);
#254=CARTESIAN_POINT('',(0.950000000000000,3.50000000000000,-0.500000000000000));
#255=VERTEX_POINT('',#254);
#256=CARTESIAN_POINT('',(0.0500000000000000,3.50000000000000,-0.500000000000000));
#257=DIRECTION('',(1.00000000000000,0.00000000000000,0.00000000000000));
#258=VECTOR('',#257,1.00000000000000);
#259=LINE('',#256,#258);
#260=EDGE_CURVE('',#222,#255,#259,.T.);
#261=ORIENTED_EDGE('',*,*,#260,.T.);
#262=CARTESIAN_POINT('',(0.950000000000000,-2.50000000000000,-0.500000000000000));
#263=VERTEX_POINT('',#262);
#264=CARTESIAN_POINT('',(0.950000000000000,0.500000000000000,-0.500000000000000));
#265=DIRECTION('',(0.00000000000000,1.00000000000000,-7.40148683083438E-17));
#266=VECTOR('',#265,1.00000000000000);
#267=LINE('',#264,#266);
#268=EDGE_CURVE('',#263,#255,#267,.T.);
#269=ORIENTED_EDGE('',*,*,#268,.F.);
#270=CARTESIAN_POINT('',(0.0500000000000000,-2.50000000000000,-0.500000000000000));
#271=DIRECTION('',(-1.00000000000000,-0.00000000000000,-0.00000000000000));
#272=VECTOR('',#271,1.00000000000000);
#273=LINE('',#270,#272);
#274=EDGE_CURVE('',#263,#231,#273,.T.);
#275=ORIENTED_EDGE('',*,*,#274,.T.);
#276=ORIENTED_EDGE('',*,*,#236,.F.);
#277=EDGE_LOOP('',(#261,#269,#275,#276));
#278=FACE_OUTER_BOUND('',#277,.T.);
#279=CARTESIAN_POINT('',(0.500000000000000,0.500000000000000,-0.500000000000000));
#280=DIRECTION('',(0.00000000000000,-7.40148683083438E-17,-1.00000000000000));
#281=DIRECTION('',(-1.00000000000000,-0.00000000000000,-0.00000000000000));
#282=AXIS2_PLACEMENT_3D('',#279,#280,#281);
#283=PLANE('',#282);
#284=ADVANCED_FACE('',(#278),#283,.T.);
#285=CARTESIAN_POINT('',(1.00000000000000,3.50000000000000,-0.450000000000000));
#286=VERTEX_POINT('',#285);
#287=CARTESIAN_POINT('',(0.950000000000000,3.50000000000000,-0.450000000000000));
#288=DIRECTION('',(0.00000000000000,-1.00000000000000,6.12323399573677E-17));
#289=DIRECTION('',(0.00000000000000,6.12323399573677E-17,1.00000000000000));
#290=AXIS2_PLACEMENT_3D('',#287,#288,#289);
#291=CIRCLE('',#290,0.0500000000000000);
#292=EDGE_CURVE('',#255,#286,#291,.T.);
#293=ORIENTED_EDGE('',*,*,#292,.T.);
#294=CARTESIAN_POINT('',(1.00000000000000,-2.50000000000000,-0.450000000000000));
#295=VERTEX_POINT('',#294);
#296=CARTESIAN_POINT('',(1.00000000000000,0.500000000000000,-0.450000000000000));
#297=DIRECTION('',(0.00000000000000,-1.00000000000000,7.40148683083438E-17));
#298=VECTOR('',#297,1.00000000000000);
#299=LINE('',#296,#298);
#300=EDGE_CURVE('',#286,#295,#299,.T.);
#301=ORIENTED_EDGE('',*,*,#300,.T.);
#302=CARTESIAN_POINT('',(0.950000000000000,-2.50000000000000,-0.450000000000000));
#303=DIRECTION('',(0.00000000000000,1.00000000000000,-6.12323399573677E-17));
#304=DIRECTION('',(0.00000000000000,6.12323399573677E-17,1.00000000000000));
#305=AXIS2_PLACEMENT_3D('',#302,#303,#304);
#306=CIRCLE('',#305,0.0500000000000000);
#307=EDGE_CURVE('',#295,#263,#306,.T.);
#308=ORIENTED_EDGE('',*,*,#307,.T.);
#309=ORIENTED_EDGE('',*,*,#268,.T.);
#310=EDGE_LOOP('',(#293,#301,#308,#309));
#311=FACE_OUTER_BOUND('',#310,.T.);
#312=CARTESIAN_POINT('',(0.950000000000000,0.500000000000000,-0.450000000000000));
#313=DIRECTION('',(0.00000000000000,1.00000000000000,-7.40148683083438E-17));
#314=DIRECTION('',(0.00000000000000,7.40148683083438E-17,1.00000000000000));
#315=AXIS2_PLACEMENT_3D('',#312,#313,#314);
#316=CYLINDRICAL_SURFACE('',#315,0.0500000000000000);
#317=ADVANCED_FACE('',(#311),#316,.T.);
#318=CARTESIAN_POINT('',(1.00000000000000,3.50000000000000,0.450000000000000));
#319=VERTEX_POINT('',#318);
#320=CARTESIAN_POINT('',(1.00000000000000,3.50000000000000,-0.450000000000000));
#321=DIRECTION('',(0.00000000000000,6.16790569236198E-17,1.00000000000000));
#322=VECTOR('',#321,1.00000000000000);
#323=LINE('',#320,#322);
#324=EDGE_CURVE('',#286,#319,#323,.T.);
#325=ORIENTED_EDGE('',*,*,#324,.T.);
#326=CARTESIAN_POINT('',(1.00000000000000,-2.50000000000000,0.450000000000000));
#327=VERTEX_POINT('',#326);
#328=CARTESIAN_POINT('',(1.00000000000000,0.500000000000000,0.450000000000000));
#329=DIRECTION('',(0.00000000000000,1.00000000000000,-7.40148683083438E-17));
#330=VECTOR('',#329,1.00000000000000);
#331=LINE('',#328,#330);
#332=EDGE_CURVE('',#327,#319,#331,.T.);
#333=ORIENTED_EDGE('',*,*,#332,.F.);
#334=CARTESIAN_POINT('',(1.00000000000000,-2.50000000000000,-0.450000000000000));
#335=DIRECTION('',(-0.00000000000000,-6.16790569236198E-17,-1.00000000000000));
#336=VECTOR('',#335,1.00000000000000);
#337=LINE('',#334,#336);
#338=EDGE_CURVE('',#327,#295,#337,.T.);
#339=ORIENTED_EDGE('',*,*,#338,.T.);
#340=ORIENTED_EDGE('',*,*,#300,.F.);
#341=EDGE_LOOP('',(#325,#333,#339,#340));
#342=FACE_OUTER_BOUND('',#341,.T.);
#343=CARTESIAN_POINT('',(1.00000000000000,0.500000000000000,0.00000000000000));
#344=DIRECTION('',(1.00000000000000,-0.00000000000000,0.00000000000000));
#345=DIRECTION('',(-0.00000000000000,-6.16790569236198E-17,-1.00000000000000));
#346=AXIS2_PLACEMENT_3D('',#343,#344,#345);
#347=PLANE('',#346);
#348=ADVANCED_FACE('',(#342),#347,.T.);
#349=CARTESIAN_POINT('',(0.950000000000000,3.50000000000000,0.500000000000000));
#350=VERTEX_POINT('',#349);
#351=CARTESIAN_POINT('',(0.950000000000000,3.50000000000000,0.450000000000000));
#352=DIRECTION('',(-0.00000000000000,-1.00000000000000,-0.00000000000000));
#353=DIRECTION('',(-1.00000000000000,0.00000000000000,0.00000000000000));
#354=AXIS2_PLACEMENT_3D('',#351,#352,#353);
#355=CIRCLE('',#354,0.0500000000000000);
#356=EDGE_CURVE('',#319,#350,#355,.T.);
#357=ORIENTED_EDGE('',*,*,#356,.T.);
#358=CARTESIAN_POINT('',(0.950000000000000,-2.50000000000000,0.500000000000000));
#359=VERTEX_POINT('',#358);
#360=CARTESIAN_POINT('',(0.950000000000000,0.500000000000000,0.500000000000000));
#361=DIRECTION('',(0.00000000000000,-1.00000000000000,7.40148683083438E-17));
#362=VECTOR('',#361,1.00000000000000);
#363=LINE('',#360,#362);
#364=EDGE_CURVE('',#350,#359,#363,.T.);
#365=ORIENTED_EDGE('',*,*,#364,.T.);
#366=CARTESIAN_POINT('',(0.950000000000000,-2.50000000000000,0.450000000000000));
#367=DIRECTION('',(0.00000000000000,1.00000000000000,0.00000000000000));
#368=DIRECTION('',(-1.00000000000000,0.00000000000000,0.00000000000000));
#369=AXIS2_PLACEMENT_3D('',#366,#367,#368);
#370=CIRCLE('',#369,0.0500000000000000);
#371=EDGE_CURVE('',#359,#327,#370,.T.);
#372=ORIENTED_EDGE('',*,*,#371,.T.);
#373=ORIENTED_EDGE('',*,*,#332,.T.);
#374=EDGE_LOOP('',(#357,#365,#372,#373));
#375=FACE_OUTER_BOUND('',#374,.T.);
#376=CARTESIAN_POINT('',(0.950000000000000,0.500000000000000,0.450000000000000));
#377=DIRECTION('',(0.00000000000000,1.00000000000000,-7.40148683083438E-17));
#378=DIRECTION('',(-1.00000000000000,0.00000000000000,0.00000000000000));
#379=AXIS2_PLACEMENT_3D('',#376,#377,#378);
#380=CYLINDRICAL_SURFACE('',#379,0.0500000000000000);
#381=ADVANCED_FACE('',(#375),#380,.T.);
#382=CARTESIAN_POINT('',(0.950000000000000,3.50000000000000,0.500000000000000));
#383=DIRECTION('',(-1.00000000000000,0.00000000000000,0.00000000000000));
#384=VECTOR('',#383,1.00000000000000);
#385=LINE('',#382,#384);
#386=EDGE_CURVE('',#350,#149,#385,.T.);
#387=ORIENTED_EDGE('',*,*,#386,.T.);
#388=ORIENTED_EDGE('',*,*,#180,.F.);
#389=CARTESIAN_POINT('',(0.950000000000000,-2.50000000000000,0.500000000000000));
#390=DIRECTION('',(1.00000000000000,0.00000000000000,0.00000000000000));
#391=VECTOR('',#390,1.00000000000000);
#392=LINE('',#389,#391);
#393=EDGE_CURVE('',#168,#359,#392,.T.);
#394=ORIENTED_EDGE('',*,*,#393,.T.);
#395=ORIENTED_EDGE('',*,*,#364,.F.);
#396=EDGE_LOOP('',(#387,#388,#394,#395));
#397=FACE_OUTER_BOUND('',#396,.T.);
#398=CARTESIAN_POINT('',(0.500000000000000,0.500000000000000,0.500000000000000));
#399=DIRECTION('',(0.00000000000000,7.40148683083438E-17,1.00000000000000));
#400=DIRECTION('',(1.00000000000000,-0.00000000000000,-0.00000000000000));
#401=AXIS2_PLACEMENT_3D('',#398,#399,#400);
#402=PLANE('',#401);
#403=ADVANCED_FACE('',(#397),#402,.T.);
#404=ORIENTED_EDGE('',*,*,#157,.F.);
#405=ORIENTED_EDGE('',*,*,#386,.F.);
#406=ORIENTED_EDGE('',*,*,#356,.F.);
#407=ORIENTED_EDGE('',*,*,#324,.F.);
#408=ORIENTED_EDGE('',*,*,#292,.F.);
#409=ORIENTED_EDGE('',*,*,#260,.F.);
#410=ORIENTED_EDGE('',*,*,#228,.F.);
#411=ORIENTED_EDGE('',*,*,#196,.F.);
#412=EDGE_LOOP('',(#404,#405,#406,#407,#408,#409,#410,#411));
#413=FACE_OUTER_BOUND('',#412,.T.);
#414=ORIENTED_EDGE('',*,*,#32,.F.);
#415=ORIENTED_EDGE('',*,*,#130,.F.);
#416=ORIENTED_EDGE('',*,*,#101,.F.);
#417=ORIENTED_EDGE('',*,*,#70,.F.);
#418=EDGE_LOOP('',(#414,#415,#416,#417));
#419=FACE_BOUND('',#418,.T.);
#420=CARTESIAN_POINT('',(0.668907500000000,3.50000000000000,0.500000000000000));
#421=DIRECTION('',(0.00000000000000,1.00000000000000,-8.29877841573877E-17));
#422=DIRECTION('',(-1.00000000000000,0.00000000000000,0.00000000000000));
#423=AXIS2_PLACEMENT_3D('',#420,#421,#422);
#424=PLANE('',#423);
#425=ADVANCED_FACE('',(#413,#419),#424,.T.);
#426=ORIENTED_EDGE('',*,*,#371,.F.);
#427=ORIENTED_EDGE('',*,*,#393,.F.);
#428=ORIENTED_EDGE('',*,*,#174,.F.);
#429=ORIENTED_EDGE('',*,*,#210,.F.);
#430=ORIENTED_EDGE('',*,*,#243,.F.);
#431=ORIENTED_EDGE('',*,*,#274,.F.);
#432=ORIENTED_EDGE('',*,*,#307,.F.);
#433=ORIENTED_EDGE('',*,*,#338,.F.);
#434=EDGE_LOOP('',(#426,#427,#428,#429,#430,#431,#432,#433));
#435=FACE_OUTER_BOUND('',#434,.T.);
#436=ORIENTED_EDGE('',*,*,#115,.F.);
#437=ORIENTED_EDGE('',*,*,#137,.F.);
#438=ORIENTED_EDGE('',*,*,#48,.F.);
#439=ORIENTED_EDGE('',*,*,#84,.F.);
#440=EDGE_LOOP('',(#436,#437,#438,#439));
#441=FACE_BOUND('',#440,.T.);
#442=CARTESIAN_POINT('',(0.668907500000000,-2.50000000000000,0.500000000000000));
#443=DIRECTION('',(0.00000000000000,1.00000000000000,-8.29877841573877E-17));
#444=DIRECTION('',(-1.00000000000000,0.00000000000000,0.00000000000000));
#445=AXIS2_PLACEMENT_3D('',#442,#443,#444);
#446=PLANE('',#445);
#447=ADVANCED_FACE('',(#435,#441),#446,.F.);
#448=CLOSED_SHELL('',(#63,#94,#125,#147,#189,#220,#253,#284,#317,#348,#381,#403,#425,#447));
#449=MANIFOLD_SOLID_BREP('',#448);
#450=COLOUR_RGB('',1.00000000000000,0.00000000000000,0.00000000000000);
#451=FILL_AREA_STYLE_COLOUR('',#450);
#452=FILL_AREA_STYLE('',(#451));
#453=SURFACE_STYLE_FILL_AREA(#452);
#454=SURFACE_SIDE_STYLE('',(#453));
#455=SURFACE_STYLE_USAGE(.BOTH.,#454);
#456=PRESENTATION_STYLE_ASSIGNMENT((#455));
#457=STYLED_ITEM('',(#456),#449);
#458=ADVANCED_BREP_SHAPE_REPRESENTATION('',(#449,#23),#18);
#459=PRODUCT('', '', ' ',(#2));
#460=PRODUCT_DEFINITION_FORMATION_WITH_SPECIFIED_SOURCE (' ', ' ', #459, .NOT_KNOWN.) ;
#461=PRODUCT_CATEGORY('part','') ;
#462=PRODUCT_RELATED_PRODUCT_CATEGORY('detail', ' ', (#459)) ;
#463=PRODUCT_CATEGORY_RELATIONSHIP(' ', ' ', #461, #462);
#464=PRODUCT_DEFINITION('', '', #460, #1);
#465=PRODUCT_DEFINITION_SHAPE('NONE', 'NONE', #464);
#466=SHAPE_DEFINITION_REPRESENTATION(#465, #458);
#467=PRESENTATION_LAYER_ASSIGNMENT('1','Unnamed [1]',(#449));
#468=MECHANICAL_DESIGN_GEOMETRIC_PRESENTATION_REPRESENTATION('',(#457), #18);
ENDSEC;
END-ISO-10303-21;
