ISO-10303-21;
HEADER;
FILE_DESCRIPTION((''),'2;1');
FILE_NAME('C:/Program Files/Kubotek/KeyCreatorPro.2021.SP0/STEP/SG1850.STP', '2021-02-25T21:28:39',(''), (''), 'KCM Version 2.0.6974.6974', 'KeyCreator Pro', '');
FILE_SCHEMA(('AUTOMOTIVE_DESIGN'));
ENDSEC;
DATA;
#1=PRODUCT_DEFINITION_CONTEXT('',#4,'design');
#2=PRODUCT_CONTEXT('',#4,'mechanical');
#3=APPLICATION_PROTOCOL_DEFINITION('International Standard','automotive_design',2001,#4);
#4=APPLICATION_CONTEXT('automotive design');
#10=DIMENSIONAL_EXPONENTS(1.0,0.0,0.0,0.0,0.0,0.0,0.0);
#11=DIMENSIONAL_EXPONENTS(0.0,0.0,0.0,0.0,0.0,0.0,0.0);
#12=(NAMED_UNIT(#10)LENGTH_UNIT()SI_UNIT(.MILLI.,.METRE.));
#13=(NAMED_UNIT(#11)PLANE_ANGLE_UNIT()SI_UNIT($,.RADIAN.));
#14=(NAMED_UNIT(#11)SOLID_ANGLE_UNIT()SI_UNIT($,.STERADIAN.));
#15=LENGTH_MEASURE_WITH_UNIT(LENGTH_MEASURE(25.4),#12);
#16= (CONVERSION_BASED_UNIT('INCH',#15)LENGTH_UNIT()NAMED_UNIT(#10));
#17=UNCERTAINTY_MEASURE_WITH_UNIT(LENGTH_MEASURE(1.0E-006),#16,'','');
#18=(GEOMETRIC_REPRESENTATION_CONTEXT(3)GLOBAL_UNCERTAINTY_ASSIGNED_CONTEXT((#17))GLOBAL_UNIT_ASSIGNED_CONTEXT((#16,#13,#14))REPRESENTATION_CONTEXT('NONE','WORKSPACE'));
#20=CARTESIAN_POINT('',(0.00000000000000,0.00000000000000,0.00000000000000));
#21=DIRECTION('',(0.00000000000000,0.00000000000000,1.00000000000000));
#22=DIRECTION('',(1.00000000000000,0.00000000000000,0.00000000000000));
#23=AXIS2_PLACEMENT_3D('',#20,#21,#22);
#24=CARTESIAN_POINT('',(4.83300018310547,-2.88639503717422,-0.593750000000000));
#25=VERTEX_POINT('',#24);
#26=CARTESIAN_POINT('',(4.83300018310547,-2.88639503717422,-0.718750000000000));
#27=VERTEX_POINT('',#26);
#28=CARTESIAN_POINT('',(4.83300018310547,-2.88639503717422,-0.656250000000000));
#29=DIRECTION('',(0.00000000000000,1.00000000000000,-6.12323399573677E-17));
#30=DIRECTION('',(1.00000000000000,0.00000000000000,0.00000000000000));
#31=AXIS2_PLACEMENT_3D('',#28,#29,#30);
#32=CIRCLE('',#31,0.0625000000000000);
#33=EDGE_CURVE('',#25,#27,#32,.T.);
#34=ORIENTED_EDGE('',*,*,#33,.T.);
#35=CARTESIAN_POINT('',(4.83300018310547,3.11360496282578,-0.718750000000000));
#36=VERTEX_POINT('',#35);
#37=CARTESIAN_POINT('',(4.83300018310547,0.113604962825775,-0.718750000000000));
#38=DIRECTION('',(0.00000000000000,1.00000000000000,-3.70074341541719E-17));
#39=VECTOR('',#38,1.00000000000000);
#40=LINE('',#37,#39);
#41=EDGE_CURVE('',#27,#36,#40,.T.);
#42=ORIENTED_EDGE('',*,*,#41,.T.);
#43=CARTESIAN_POINT('',(4.83300018310547,3.11360496282578,-0.593750000000000));
#44=VERTEX_POINT('',#43);
#45=CARTESIAN_POINT('',(4.83300018310547,3.11360496282578,-0.656250000000000));
#46=DIRECTION('',(0.00000000000000,-1.00000000000000,6.12323399573677E-17));
#47=DIRECTION('',(1.00000000000000,0.00000000000000,0.00000000000000));
#48=AXIS2_PLACEMENT_3D('',#45,#46,#47);
#49=CIRCLE('',#48,0.0625000000000000);
#50=EDGE_CURVE('',#36,#44,#49,.T.);
#51=ORIENTED_EDGE('',*,*,#50,.T.);
#52=CARTESIAN_POINT('',(4.83300018310547,0.113604962825775,-0.593750000000000));
#53=DIRECTION('',(0.00000000000000,-1.00000000000000,3.70074341541719E-17));
#54=VECTOR('',#53,1.00000000000000);
#55=LINE('',#52,#54);
#56=EDGE_CURVE('',#44,#25,#55,.T.);
#57=ORIENTED_EDGE('',*,*,#56,.T.);
#58=EDGE_LOOP('',(#34,#42,#51,#57));
#59=FACE_OUTER_BOUND('',#58,.T.);
#60=CARTESIAN_POINT('',(4.83300018310547,0.113604962825775,-0.656250000000000));
#61=DIRECTION('',(0.00000000000000,-1.00000000000000,3.70074341541719E-17));
#62=DIRECTION('',(-1.00000000000000,0.00000000000000,0.00000000000000));
#63=AXIS2_PLACEMENT_3D('',#60,#61,#62);
#64=CYLINDRICAL_SURFACE('',#63,0.0625000000000000);
#65=ADVANCED_FACE('',(#59),#64,.T.);
#66=CARTESIAN_POINT('',(2.45800018310547,-2.88639503717422,-0.718750000000000));
#67=VERTEX_POINT('',#66);
#68=CARTESIAN_POINT('',(2.45800018310547,-2.88639503717422,-0.718750000000000));
#69=DIRECTION('',(-1.00000000000000,-0.00000000000000,-0.00000000000000));
#70=VECTOR('',#69,1.00000000000000);
#71=LINE('',#68,#70);
#72=EDGE_CURVE('',#27,#67,#71,.T.);
#73=ORIENTED_EDGE('',*,*,#72,.T.);
#74=CARTESIAN_POINT('',(2.45800018310547,3.11360496282578,-0.718750000000000));
#75=VERTEX_POINT('',#74);
#76=CARTESIAN_POINT('',(2.45800018310547,0.113604962825775,-0.718750000000000));
#77=DIRECTION('',(0.00000000000000,-1.00000000000000,3.70074341541719E-17));
#78=VECTOR('',#77,1.00000000000000);
#79=LINE('',#76,#78);
#80=EDGE_CURVE('',#75,#67,#79,.T.);
#81=ORIENTED_EDGE('',*,*,#80,.F.);
#82=CARTESIAN_POINT('',(2.45800018310547,3.11360496282578,-0.718750000000000));
#83=DIRECTION('',(1.00000000000000,0.00000000000000,0.00000000000000));
#84=VECTOR('',#83,1.00000000000000);
#85=LINE('',#82,#84);
#86=EDGE_CURVE('',#75,#36,#85,.T.);
#87=ORIENTED_EDGE('',*,*,#86,.T.);
#88=ORIENTED_EDGE('',*,*,#41,.F.);
#89=EDGE_LOOP('',(#73,#81,#87,#88));
#90=FACE_OUTER_BOUND('',#89,.T.);
#91=CARTESIAN_POINT('',(3.64550018310547,0.113604962825775,-0.718750000000000));
#92=DIRECTION('',(0.00000000000000,-3.70074341541719E-17,-1.00000000000000));
#93=DIRECTION('',(1.00000000000000,0.00000000000000,0.00000000000000));
#94=AXIS2_PLACEMENT_3D('',#91,#92,#93);
#95=PLANE('',#94);
#96=ADVANCED_FACE('',(#90),#95,.T.);
#97=CARTESIAN_POINT('',(2.45800018310547,-2.88639503717422,-0.593750000000000));
#98=VERTEX_POINT('',#97);
#99=CARTESIAN_POINT('',(2.45800018310547,-2.88639503717422,-0.656250000000000));
#100=DIRECTION('',(0.00000000000000,1.00000000000000,-6.12323399573677E-17));
#101=DIRECTION('',(1.00000000000000,0.00000000000000,0.00000000000000));
#102=AXIS2_PLACEMENT_3D('',#99,#100,#101);
#103=CIRCLE('',#102,0.0625000000000000);
#104=EDGE_CURVE('',#67,#98,#103,.T.);
#105=ORIENTED_EDGE('',*,*,#104,.T.);
#106=CARTESIAN_POINT('',(2.45800018310547,3.11360496282578,-0.593750000000000));
#107=VERTEX_POINT('',#106);
#108=CARTESIAN_POINT('',(2.45800018310547,0.113604962825775,-0.593750000000000));
#109=DIRECTION('',(0.00000000000000,1.00000000000000,-3.70074341541719E-17));
#110=VECTOR('',#109,1.00000000000000);
#111=LINE('',#108,#110);
#112=EDGE_CURVE('',#98,#107,#111,.T.);
#113=ORIENTED_EDGE('',*,*,#112,.T.);
#114=CARTESIAN_POINT('',(2.45800018310547,3.11360496282578,-0.656250000000000));
#115=DIRECTION('',(0.00000000000000,-1.00000000000000,6.12323399573677E-17));
#116=DIRECTION('',(1.00000000000000,0.00000000000000,0.00000000000000));
#117=AXIS2_PLACEMENT_3D('',#114,#115,#116);
#118=CIRCLE('',#117,0.0625000000000000);
#119=EDGE_CURVE('',#107,#75,#118,.T.);
#120=ORIENTED_EDGE('',*,*,#119,.T.);
#121=ORIENTED_EDGE('',*,*,#80,.T.);
#122=EDGE_LOOP('',(#105,#113,#120,#121));
#123=FACE_OUTER_BOUND('',#122,.T.);
#124=CARTESIAN_POINT('',(2.45800018310547,0.113604962825775,-0.656250000000000));
#125=DIRECTION('',(0.00000000000000,-1.00000000000000,3.70074341541719E-17));
#126=DIRECTION('',(1.00000000000000,0.00000000000000,0.00000000000000));
#127=AXIS2_PLACEMENT_3D('',#124,#125,#126);
#128=CYLINDRICAL_SURFACE('',#127,0.0625000000000000);
#129=ADVANCED_FACE('',(#123),#128,.T.);
#130=CARTESIAN_POINT('',(3.13050018310547,-2.88639503717422,-0.593750000000000));
#131=VERTEX_POINT('',#130);
#132=CARTESIAN_POINT('',(2.45800018310547,-2.88639503717422,-0.593750000000000));
#133=DIRECTION('',(1.00000000000000,0.00000000000000,0.00000000000000));
#134=VECTOR('',#133,1.00000000000000);
#135=LINE('',#132,#134);
#136=EDGE_CURVE('',#98,#131,#135,.T.);
#137=ORIENTED_EDGE('',*,*,#136,.T.);
#138=CARTESIAN_POINT('',(3.13050018310547,3.11360496282578,-0.593750000000000));
#139=VERTEX_POINT('',#138);
#140=CARTESIAN_POINT('',(3.13050018310547,0.113604962825775,-0.593750000000000));
#141=DIRECTION('',(0.00000000000000,1.00000000000000,-3.70074341541719E-17));
#142=VECTOR('',#141,1.00000000000000);
#143=LINE('',#140,#142);
#144=EDGE_CURVE('',#131,#139,#143,.T.);
#145=ORIENTED_EDGE('',*,*,#144,.T.);
#146=CARTESIAN_POINT('',(2.45800018310547,3.11360496282578,-0.593750000000000));
#147=DIRECTION('',(-1.00000000000000,-0.00000000000000,-0.00000000000000));
#148=VECTOR('',#147,1.00000000000000);
#149=LINE('',#146,#148);
#150=EDGE_CURVE('',#139,#107,#149,.T.);
#151=ORIENTED_EDGE('',*,*,#150,.T.);
#152=ORIENTED_EDGE('',*,*,#112,.F.);
#153=EDGE_LOOP('',(#137,#145,#151,#152));
#154=FACE_OUTER_BOUND('',#153,.T.);
#155=CARTESIAN_POINT('',(2.79425018310547,0.113604962825775,-0.593750000000000));
#156=DIRECTION('',(-0.00000000000000,3.70074341541719E-17,1.00000000000000));
#157=DIRECTION('',(-1.00000000000000,-0.00000000000000,-0.00000000000000));
#158=AXIS2_PLACEMENT_3D('',#155,#156,#157);
#159=PLANE('',#158);
#160=ADVANCED_FACE('',(#154),#159,.T.);
#161=CARTESIAN_POINT('',(3.13050018310547,-2.88639503717422,0.593750000000000));
#162=VERTEX_POINT('',#161);
#163=CARTESIAN_POINT('',(3.13050018310547,-2.88639503717422,0.593750000000000));
#164=DIRECTION('',(0.00000000000000,5.84327907697451E-17,1.00000000000000));
#165=VECTOR('',#164,1.00000000000000);
#166=LINE('',#163,#165);
#167=EDGE_CURVE('',#131,#162,#166,.T.);
#168=ORIENTED_EDGE('',*,*,#167,.T.);
#169=CARTESIAN_POINT('',(3.13050018310547,3.11360496282578,0.593750000000000));
#170=VERTEX_POINT('',#169);
#171=CARTESIAN_POINT('',(3.13050018310547,0.113604962825775,0.593750000000000));
#172=DIRECTION('',(0.00000000000000,-1.00000000000000,3.70074341541719E-17));
#173=VECTOR('',#172,1.00000000000000);
#174=LINE('',#171,#173);
#175=EDGE_CURVE('',#170,#162,#174,.T.);
#176=ORIENTED_EDGE('',*,*,#175,.F.);
#177=CARTESIAN_POINT('',(3.13050018310547,3.11360496282578,0.593750000000000));
#178=DIRECTION('',(0.00000000000000,-5.84327907697451E-17,-1.00000000000000));
#179=VECTOR('',#178,1.00000000000000);
#180=LINE('',#177,#179);
#181=EDGE_CURVE('',#170,#139,#180,.T.);
#182=ORIENTED_EDGE('',*,*,#181,.T.);
#183=ORIENTED_EDGE('',*,*,#144,.F.);
#184=EDGE_LOOP('',(#168,#176,#182,#183));
#185=FACE_OUTER_BOUND('',#184,.T.);
#186=CARTESIAN_POINT('',(3.13050018310547,0.113604962825775,0.00000000000000));
#187=DIRECTION('',(-1.00000000000000,-0.00000000000000,0.00000000000000));
#188=DIRECTION('',(0.00000000000000,-5.84327907697451E-17,-1.00000000000000));
#189=AXIS2_PLACEMENT_3D('',#186,#187,#188);
#190=PLANE('',#189);
#191=ADVANCED_FACE('',(#185),#190,.T.);
#192=CARTESIAN_POINT('',(3.25550018310547,-2.88639503717422,0.593750000000000));
#193=VERTEX_POINT('',#192);
#194=CARTESIAN_POINT('',(3.19300018310547,-2.88639503717422,0.593750000000000));
#195=DIRECTION('',(0.00000000000000,1.00000000000000,-6.12323399573677E-17));
#196=DIRECTION('',(1.00000000000000,0.00000000000000,0.00000000000000));
#197=AXIS2_PLACEMENT_3D('',#194,#195,#196);
#198=CIRCLE('',#197,0.0625000000000000);
#199=EDGE_CURVE('',#162,#193,#198,.T.);
#200=ORIENTED_EDGE('',*,*,#199,.T.);
#201=CARTESIAN_POINT('',(3.25550018310547,3.11360496282578,0.593750000000000));
#202=VERTEX_POINT('',#201);
#203=CARTESIAN_POINT('',(3.25550018310547,0.113604962825775,0.593750000000000));
#204=DIRECTION('',(0.00000000000000,1.00000000000000,-3.70074341541719E-17));
#205=VECTOR('',#204,1.00000000000000);
#206=LINE('',#203,#205);
#207=EDGE_CURVE('',#193,#202,#206,.T.);
#208=ORIENTED_EDGE('',*,*,#207,.T.);
#209=CARTESIAN_POINT('',(3.19300018310547,3.11360496282578,0.593750000000000));
#210=DIRECTION('',(0.00000000000000,-1.00000000000000,6.12323399573677E-17));
#211=DIRECTION('',(1.00000000000000,0.00000000000000,0.00000000000000));
#212=AXIS2_PLACEMENT_3D('',#209,#210,#211);
#213=CIRCLE('',#212,0.0625000000000000);
#214=EDGE_CURVE('',#202,#170,#213,.T.);
#215=ORIENTED_EDGE('',*,*,#214,.T.);
#216=ORIENTED_EDGE('',*,*,#175,.T.);
#217=EDGE_LOOP('',(#200,#208,#215,#216));
#218=FACE_OUTER_BOUND('',#217,.T.);
#219=CARTESIAN_POINT('',(3.19300018310547,0.113604962825775,0.593750000000000));
#220=DIRECTION('',(0.00000000000000,-1.00000000000000,3.70074341541719E-17));
#221=DIRECTION('',(0.00000000000000,0.00000000000000,-1.00000000000000));
#222=AXIS2_PLACEMENT_3D('',#219,#220,#221);
#223=CYLINDRICAL_SURFACE('',#222,0.0625000000000000);
#224=ADVANCED_FACE('',(#218),#223,.T.);
#225=CARTESIAN_POINT('',(3.25550018310547,-2.88639503717422,-0.593750000000000));
#226=VERTEX_POINT('',#225);
#227=CARTESIAN_POINT('',(3.25550018310547,-2.88639503717422,0.593750000000000));
#228=DIRECTION('',(0.00000000000000,-5.84327907697451E-17,-1.00000000000000));
#229=VECTOR('',#228,1.00000000000000);
#230=LINE('',#227,#229);
#231=EDGE_CURVE('',#193,#226,#230,.T.);
#232=ORIENTED_EDGE('',*,*,#231,.T.);
#233=CARTESIAN_POINT('',(3.25550018310547,3.11360496282578,-0.593750000000000));
#234=VERTEX_POINT('',#233);
#235=CARTESIAN_POINT('',(3.25550018310547,0.113604962825775,-0.593750000000000));
#236=DIRECTION('',(0.00000000000000,-1.00000000000000,3.70074341541719E-17));
#237=VECTOR('',#236,1.00000000000000);
#238=LINE('',#235,#237);
#239=EDGE_CURVE('',#234,#226,#238,.T.);
#240=ORIENTED_EDGE('',*,*,#239,.F.);
#241=CARTESIAN_POINT('',(3.25550018310547,3.11360496282578,0.593750000000000));
#242=DIRECTION('',(0.00000000000000,5.84327907697451E-17,1.00000000000000));
#243=VECTOR('',#242,1.00000000000000);
#244=LINE('',#241,#243);
#245=EDGE_CURVE('',#234,#202,#244,.T.);
#246=ORIENTED_EDGE('',*,*,#245,.T.);
#247=ORIENTED_EDGE('',*,*,#207,.F.);
#248=EDGE_LOOP('',(#232,#240,#246,#247));
#249=FACE_OUTER_BOUND('',#248,.T.);
#250=CARTESIAN_POINT('',(3.25550018310547,0.113604962825775,0.00000000000000));
#251=DIRECTION('',(1.00000000000000,0.00000000000000,0.00000000000000));
#252=DIRECTION('',(-0.00000000000000,5.84327907697451E-17,1.00000000000000));
#253=AXIS2_PLACEMENT_3D('',#250,#251,#252);
#254=PLANE('',#253);
#255=ADVANCED_FACE('',(#249),#254,.T.);
#256=CARTESIAN_POINT('',(4.03550018310547,-2.88639503717422,-0.593750000000000));
#257=VERTEX_POINT('',#256);
#258=CARTESIAN_POINT('',(3.25550018310547,-2.88639503717422,-0.593750000000000));
#259=DIRECTION('',(1.00000000000000,0.00000000000000,0.00000000000000));
#260=VECTOR('',#259,1.00000000000000);
#261=LINE('',#258,#260);
#262=EDGE_CURVE('',#226,#257,#261,.T.);
#263=ORIENTED_EDGE('',*,*,#262,.T.);
#264=CARTESIAN_POINT('',(4.03550018310547,3.11360496282578,-0.593750000000000));
#265=VERTEX_POINT('',#264);
#266=CARTESIAN_POINT('',(4.03550018310547,0.113604962825775,-0.593750000000000));
#267=DIRECTION('',(0.00000000000000,1.00000000000000,-3.70074341541719E-17));
#268=VECTOR('',#267,1.00000000000000);
#269=LINE('',#266,#268);
#270=EDGE_CURVE('',#257,#265,#269,.T.);
#271=ORIENTED_EDGE('',*,*,#270,.T.);
#272=CARTESIAN_POINT('',(3.25550018310547,3.11360496282578,-0.593750000000000));
#273=DIRECTION('',(-1.00000000000000,-0.00000000000000,-0.00000000000000));
#274=VECTOR('',#273,1.00000000000000);
#275=LINE('',#272,#274);
#276=EDGE_CURVE('',#265,#234,#275,.T.);
#277=ORIENTED_EDGE('',*,*,#276,.T.);
#278=ORIENTED_EDGE('',*,*,#239,.T.);
#279=EDGE_LOOP('',(#263,#271,#277,#278));
#280=FACE_OUTER_BOUND('',#279,.T.);
#281=CARTESIAN_POINT('',(3.64550018310547,0.113604962825775,-0.593750000000000));
#282=DIRECTION('',(-0.00000000000000,3.70074341541719E-17,1.00000000000000));
#283=DIRECTION('',(-1.00000000000000,-0.00000000000000,-0.00000000000000));
#284=AXIS2_PLACEMENT_3D('',#281,#282,#283);
#285=PLANE('',#284);
#286=ADVANCED_FACE('',(#280),#285,.T.);
#287=CARTESIAN_POINT('',(4.03550018310547,-2.88639503717422,0.593750000000000));
#288=VERTEX_POINT('',#287);
#289=CARTESIAN_POINT('',(4.03550018310547,-2.88639503717422,0.593750000000000));
#290=DIRECTION('',(0.00000000000000,5.84327907697451E-17,1.00000000000000));
#291=VECTOR('',#290,1.00000000000000);
#292=LINE('',#289,#291);
#293=EDGE_CURVE('',#257,#288,#292,.T.);
#294=ORIENTED_EDGE('',*,*,#293,.T.);
#295=CARTESIAN_POINT('',(4.03550018310547,3.11360496282578,0.593750000000000));
#296=VERTEX_POINT('',#295);
#297=CARTESIAN_POINT('',(4.03550018310547,0.113604962825775,0.593750000000000));
#298=DIRECTION('',(0.00000000000000,-1.00000000000000,3.70074341541719E-17));
#299=VECTOR('',#298,1.00000000000000);
#300=LINE('',#297,#299);
#301=EDGE_CURVE('',#296,#288,#300,.T.);
#302=ORIENTED_EDGE('',*,*,#301,.F.);
#303=CARTESIAN_POINT('',(4.03550018310547,3.11360496282578,0.593750000000000));
#304=DIRECTION('',(0.00000000000000,-5.84327907697451E-17,-1.00000000000000));
#305=VECTOR('',#304,1.00000000000000);
#306=LINE('',#303,#305);
#307=EDGE_CURVE('',#296,#265,#306,.T.);
#308=ORIENTED_EDGE('',*,*,#307,.T.);
#309=ORIENTED_EDGE('',*,*,#270,.F.);
#310=EDGE_LOOP('',(#294,#302,#308,#309));
#311=FACE_OUTER_BOUND('',#310,.T.);
#312=CARTESIAN_POINT('',(4.03550018310547,0.113604962825775,0.00000000000000));
#313=DIRECTION('',(-1.00000000000000,-0.00000000000000,0.00000000000000));
#314=DIRECTION('',(0.00000000000000,-5.84327907697451E-17,-1.00000000000000));
#315=AXIS2_PLACEMENT_3D('',#312,#313,#314);
#316=PLANE('',#315);
#317=ADVANCED_FACE('',(#311),#316,.T.);
#318=CARTESIAN_POINT('',(4.16050018310547,-2.88639503717422,0.593750000000000));
#319=VERTEX_POINT('',#318);
#320=CARTESIAN_POINT('',(4.09800018310547,-2.88639503717422,0.593750000000000));
#321=DIRECTION('',(0.00000000000000,1.00000000000000,-6.12323399573677E-17));
#322=DIRECTION('',(1.00000000000000,0.00000000000000,0.00000000000000));
#323=AXIS2_PLACEMENT_3D('',#320,#321,#322);
#324=CIRCLE('',#323,0.0625000000000000);
#325=EDGE_CURVE('',#288,#319,#324,.T.);
#326=ORIENTED_EDGE('',*,*,#325,.T.);
#327=CARTESIAN_POINT('',(4.16050018310547,3.11360496282578,0.593750000000000));
#328=VERTEX_POINT('',#327);
#329=CARTESIAN_POINT('',(4.16050018310547,0.113604962825775,0.593750000000000));
#330=DIRECTION('',(0.00000000000000,1.00000000000000,-3.70074341541719E-17));
#331=VECTOR('',#330,1.00000000000000);
#332=LINE('',#329,#331);
#333=EDGE_CURVE('',#319,#328,#332,.T.);
#334=ORIENTED_EDGE('',*,*,#333,.T.);
#335=CARTESIAN_POINT('',(4.09800018310547,3.11360496282578,0.593750000000000));
#336=DIRECTION('',(0.00000000000000,-1.00000000000000,6.12323399573677E-17));
#337=DIRECTION('',(1.00000000000000,0.00000000000000,0.00000000000000));
#338=AXIS2_PLACEMENT_3D('',#335,#336,#337);
#339=CIRCLE('',#338,0.0625000000000000);
#340=EDGE_CURVE('',#328,#296,#339,.T.);
#341=ORIENTED_EDGE('',*,*,#340,.T.);
#342=ORIENTED_EDGE('',*,*,#301,.T.);
#343=EDGE_LOOP('',(#326,#334,#341,#342));
#344=FACE_OUTER_BOUND('',#343,.T.);
#345=CARTESIAN_POINT('',(4.09800018310547,0.113604962825775,0.593750000000000));
#346=DIRECTION('',(0.00000000000000,-1.00000000000000,3.70074341541719E-17));
#347=DIRECTION('',(0.00000000000000,0.00000000000000,-1.00000000000000));
#348=AXIS2_PLACEMENT_3D('',#345,#346,#347);
#349=CYLINDRICAL_SURFACE('',#348,0.0625000000000000);
#350=ADVANCED_FACE('',(#344),#349,.T.);
#351=CARTESIAN_POINT('',(4.16050018310547,-2.88639503717422,-0.593750000000000));
#352=VERTEX_POINT('',#351);
#353=CARTESIAN_POINT('',(4.16050018310547,-2.88639503717422,0.593750000000000));
#354=DIRECTION('',(0.00000000000000,-5.84327907697451E-17,-1.00000000000000));
#355=VECTOR('',#354,1.00000000000000);
#356=LINE('',#353,#355);
#357=EDGE_CURVE('',#319,#352,#356,.T.);
#358=ORIENTED_EDGE('',*,*,#357,.T.);
#359=CARTESIAN_POINT('',(4.16050018310547,3.11360496282578,-0.593750000000000));
#360=VERTEX_POINT('',#359);
#361=CARTESIAN_POINT('',(4.16050018310547,0.113604962825775,-0.593750000000000));
#362=DIRECTION('',(0.00000000000000,1.00000000000000,-3.70074341541719E-17));
#363=VECTOR('',#362,1.00000000000000);
#364=LINE('',#361,#363);
#365=EDGE_CURVE('',#352,#360,#364,.T.);
#366=ORIENTED_EDGE('',*,*,#365,.T.);
#367=CARTESIAN_POINT('',(4.16050018310547,3.11360496282578,0.593750000000000));
#368=DIRECTION('',(0.00000000000000,5.84327907697451E-17,1.00000000000000));
#369=VECTOR('',#368,1.00000000000000);
#370=LINE('',#367,#369);
#371=EDGE_CURVE('',#360,#328,#370,.T.);
#372=ORIENTED_EDGE('',*,*,#371,.T.);
#373=ORIENTED_EDGE('',*,*,#333,.F.);
#374=EDGE_LOOP('',(#358,#366,#372,#373));
#375=FACE_OUTER_BOUND('',#374,.T.);
#376=CARTESIAN_POINT('',(4.16050018310547,0.113604962825775,0.00000000000000));
#377=DIRECTION('',(1.00000000000000,0.00000000000000,0.00000000000000));
#378=DIRECTION('',(-0.00000000000000,5.84327907697451E-17,1.00000000000000));
#379=AXIS2_PLACEMENT_3D('',#376,#377,#378);
#380=PLANE('',#379);
#381=ADVANCED_FACE('',(#375),#380,.T.);
#382=CARTESIAN_POINT('',(4.16050018310547,-2.88639503717422,-0.593750000000000));
#383=DIRECTION('',(1.00000000000000,0.00000000000000,0.00000000000000));
#384=VECTOR('',#383,1.00000000000000);
#385=LINE('',#382,#384);
#386=EDGE_CURVE('',#352,#25,#385,.T.);
#387=ORIENTED_EDGE('',*,*,#386,.T.);
#388=ORIENTED_EDGE('',*,*,#56,.F.);
#389=CARTESIAN_POINT('',(4.16050018310547,3.11360496282578,-0.593750000000000));
#390=DIRECTION('',(-1.00000000000000,-0.00000000000000,-0.00000000000000));
#391=VECTOR('',#390,1.00000000000000);
#392=LINE('',#389,#391);
#393=EDGE_CURVE('',#44,#360,#392,.T.);
#394=ORIENTED_EDGE('',*,*,#393,.T.);
#395=ORIENTED_EDGE('',*,*,#365,.F.);
#396=EDGE_LOOP('',(#387,#388,#394,#395));
#397=FACE_OUTER_BOUND('',#396,.T.);
#398=CARTESIAN_POINT('',(4.49675018310547,0.113604962825775,-0.593750000000000));
#399=DIRECTION('',(-0.00000000000000,3.70074341541719E-17,1.00000000000000));
#400=DIRECTION('',(-1.00000000000000,-0.00000000000000,-0.00000000000000));
#401=AXIS2_PLACEMENT_3D('',#398,#399,#400);
#402=PLANE('',#401);
#403=ADVANCED_FACE('',(#397),#402,.T.);
#404=ORIENTED_EDGE('',*,*,#33,.F.);
#405=ORIENTED_EDGE('',*,*,#386,.F.);
#406=ORIENTED_EDGE('',*,*,#357,.F.);
#407=ORIENTED_EDGE('',*,*,#325,.F.);
#408=ORIENTED_EDGE('',*,*,#293,.F.);
#409=ORIENTED_EDGE('',*,*,#262,.F.);
#410=ORIENTED_EDGE('',*,*,#231,.F.);
#411=ORIENTED_EDGE('',*,*,#199,.F.);
#412=ORIENTED_EDGE('',*,*,#167,.F.);
#413=ORIENTED_EDGE('',*,*,#136,.F.);
#414=ORIENTED_EDGE('',*,*,#104,.F.);
#415=ORIENTED_EDGE('',*,*,#72,.F.);
#416=EDGE_LOOP('',(#404,#405,#406,#407,#408,#409,#410,#411,#412,#413,#414,#415));
#417=FACE_OUTER_BOUND('',#416,.T.);
#418=CARTESIAN_POINT('',(4.37053874560547,-2.88639503717422,-0.593750000000000));
#419=DIRECTION('',(0.00000000000000,-1.00000000000000,5.09829126576465E-17));
#420=DIRECTION('',(1.00000000000000,0.00000000000000,0.00000000000000));
#421=AXIS2_PLACEMENT_3D('',#418,#419,#420);
#422=PLANE('',#421);
#423=ADVANCED_FACE('',(#417),#422,.T.);
#424=ORIENTED_EDGE('',*,*,#371,.F.);
#425=ORIENTED_EDGE('',*,*,#393,.F.);
#426=ORIENTED_EDGE('',*,*,#50,.F.);
#427=ORIENTED_EDGE('',*,*,#86,.F.);
#428=ORIENTED_EDGE('',*,*,#119,.F.);
#429=ORIENTED_EDGE('',*,*,#150,.F.);
#430=ORIENTED_EDGE('',*,*,#181,.F.);
#431=ORIENTED_EDGE('',*,*,#214,.F.);
#432=ORIENTED_EDGE('',*,*,#245,.F.);
#433=ORIENTED_EDGE('',*,*,#276,.F.);
#434=ORIENTED_EDGE('',*,*,#307,.F.);
#435=ORIENTED_EDGE('',*,*,#340,.F.);
#436=EDGE_LOOP('',(#424,#425,#426,#427,#428,#429,#430,#431,#432,#433,#434,#435));
#437=FACE_OUTER_BOUND('',#436,.T.);
#438=CARTESIAN_POINT('',(4.37053874560547,3.11360496282578,-0.593750000000000));
#439=DIRECTION('',(0.00000000000000,-1.00000000000000,5.09829126576465E-17));
#440=DIRECTION('',(1.00000000000000,0.00000000000000,0.00000000000000));
#441=AXIS2_PLACEMENT_3D('',#438,#439,#440);
#442=PLANE('',#441);
#443=ADVANCED_FACE('',(#437),#442,.F.);
#444=CLOSED_SHELL('',(#65,#96,#129,#160,#191,#224,#255,#286,#317,#350,#381,#403,#423,#443));
#445=MANIFOLD_SOLID_BREP('',#444);
#446=COLOUR_RGB('',1.00000000000000,0.00000000000000,0.00000000000000);
#447=FILL_AREA_STYLE_COLOUR('',#446);
#448=FILL_AREA_STYLE('',(#447));
#449=SURFACE_STYLE_FILL_AREA(#448);
#450=SURFACE_SIDE_STYLE('',(#449));
#451=SURFACE_STYLE_USAGE(.BOTH.,#450);
#452=PRESENTATION_STYLE_ASSIGNMENT((#451));
#453=STYLED_ITEM('',(#452),#445);
#454=ADVANCED_BREP_SHAPE_REPRESENTATION('',(#445,#23),#18);
#455=PRODUCT('', '', ' ',(#2));
#456=PRODUCT_DEFINITION_FORMATION_WITH_SPECIFIED_SOURCE (' ', ' ', #455, .NOT_KNOWN.) ;
#457=PRODUCT_CATEGORY('part','') ;
#458=PRODUCT_RELATED_PRODUCT_CATEGORY('detail', ' ', (#455)) ;
#459=PRODUCT_CATEGORY_RELATIONSHIP(' ', ' ', #457, #458);
#460=PRODUCT_DEFINITION('', '', #456, #1);
#461=PRODUCT_DEFINITION_SHAPE('NONE', 'NONE', #460);
#462=SHAPE_DEFINITION_REPRESENTATION(#461, #454);
#463=PRESENTATION_LAYER_ASSIGNMENT('1','Unnamed [1]',(#445));
#464=MECHANICAL_DESIGN_GEOMETRIC_PRESENTATION_REPRESENTATION('',(#453), #18);
ENDSEC;
END-ISO-10303-21;
