ISO-10303-21;
HEADER;
FILE_DESCRIPTION((''),'2;1');
FILE_NAME('C:/Program Files/Kubotek/KeyCreatorPro.2021.SP0/STEP/SG1849.STP', '2021-03-11T14:39:26',(''), (''), 'KCM Version 2.0.6974.6974', 'KeyCreator Pro', '');
FILE_SCHEMA(('AUTOMOTIVE_DESIGN'));
ENDSEC;
DATA;
#1=PRODUCT_DEFINITION_CONTEXT('',#4,'design');
#2=PRODUCT_CONTEXT('',#4,'mechanical');
#3=APPLICATION_PROTOCOL_DEFINITION('International Standard','automotive_design',2001,#4);
#4=APPLICATION_CONTEXT('automotive design');
#10=DIMENSIONAL_EXPONENTS(1.0,0.0,0.0,0.0,0.0,0.0,0.0);
#11=DIMENSIONAL_EXPONENTS(0.0,0.0,0.0,0.0,0.0,0.0,0.0);
#12=(NAMED_UNIT(#10)LENGTH_UNIT()SI_UNIT(.MILLI.,.METRE.));
#13=(NAMED_UNIT(#11)PLANE_ANGLE_UNIT()SI_UNIT($,.RADIAN.));
#14=(NAMED_UNIT(#11)SOLID_ANGLE_UNIT()SI_UNIT($,.STERADIAN.));
#15=LENGTH_MEASURE_WITH_UNIT(LENGTH_MEASURE(25.4),#12);
#16= (CONVERSION_BASED_UNIT('INCH',#15)LENGTH_UNIT()NAMED_UNIT(#10));
#17=UNCERTAINTY_MEASURE_WITH_UNIT(LENGTH_MEASURE(1.0E-006),#16,'','');
#18=(GEOMETRIC_REPRESENTATION_CONTEXT(3)GLOBAL_UNCERTAINTY_ASSIGNED_CONTEXT((#17))GLOBAL_UNIT_ASSIGNED_CONTEXT((#16,#13,#14))REPRESENTATION_CONTEXT('NONE','WORKSPACE'));
#20=CARTESIAN_POINT('',(0.00000000000000,0.00000000000000,0.00000000000000));
#21=DIRECTION('',(0.00000000000000,0.00000000000000,1.00000000000000));
#22=DIRECTION('',(1.00000000000000,0.00000000000000,0.00000000000000));
#23=AXIS2_PLACEMENT_3D('',#20,#21,#22);
#24=CARTESIAN_POINT('',(1.38321691707327,8.15667337417603,0.122783626657359));
#25=VERTEX_POINT('',#24);
#26=CARTESIAN_POINT('',(0.966458607419318,8.15667337417603,0.157413571705391));
#27=VERTEX_POINT('',#26);
#28=CARTESIAN_POINT('',(0.966458607419318,8.15667337417603,0.157413571705391));
#29=DIRECTION('',(-0.996565502497761,0.00000000000000,0.0828082075122082));
#30=VECTOR('',#29,1.00000000000000);
#31=LINE('',#28,#30);
#32=EDGE_CURVE('',#25,#27,#31,.T.);
#33=ORIENTED_EDGE('',*,*,#32,.T.);
#34=CARTESIAN_POINT('',(0.966458607419318,2.15667337417603,0.157413571705391));
#35=VERTEX_POINT('',#34);
#36=CARTESIAN_POINT('',(0.966458607419318,5.15667337417603,0.157413571705391));
#37=DIRECTION('',(0.00000000000000,1.00000000000000,0.00000000000000));
#38=VECTOR('',#37,1.00000000000000);
#39=LINE('',#36,#38);
#40=EDGE_CURVE('',#35,#27,#39,.T.);
#41=ORIENTED_EDGE('',*,*,#40,.F.);
#42=CARTESIAN_POINT('',(1.38321691707327,2.15667337417603,0.122783626657359));
#43=VERTEX_POINT('',#42);
#44=CARTESIAN_POINT('',(0.966458607419318,2.15667337417603,0.157413571705391));
#45=DIRECTION('',(0.996565502497761,0.00000000000000,-0.0828082075122082));
#46=VECTOR('',#45,1.00000000000000);
#47=LINE('',#44,#46);
#48=EDGE_CURVE('',#35,#43,#47,.T.);
#49=ORIENTED_EDGE('',*,*,#48,.T.);
#50=CARTESIAN_POINT('',(1.38321691707327,5.15667337417603,0.122783626657359));
#51=DIRECTION('',(0.00000000000000,1.00000000000000,0.00000000000000));
#52=VECTOR('',#51,1.00000000000000);
#53=LINE('',#50,#52);
#54=EDGE_CURVE('',#43,#25,#53,.T.);
#55=ORIENTED_EDGE('',*,*,#54,.T.);
#56=EDGE_LOOP('',(#33,#41,#49,#55));
#57=FACE_OUTER_BOUND('',#56,.T.);
#58=CARTESIAN_POINT('',(1.17483776224629,5.15667337417603,0.140098599181375));
#59=DIRECTION('',(0.0828082075122082,-0.00000000000000,0.996565502497761));
#60=DIRECTION('',(0.996565502497761,0.00000000000000,-0.0828082075122082));
#61=AXIS2_PLACEMENT_3D('',#58,#59,#60);
#62=PLANE('',#61);
#63=ADVANCED_FACE('',(#57),#62,.T.);
#64=CARTESIAN_POINT('',(0.907621123691172,8.15667337417603,0.187480143684629));
#65=VERTEX_POINT('',#64);
#66=CARTESIAN_POINT('',(0.973662921472880,8.15667337417603,0.244114770422695));
#67=DIRECTION('',(0.00000000000000,1.00000000000000,-6.12323399573677E-17));
#68=DIRECTION('',(1.00000000000000,0.00000000000000,0.00000000000000));
#69=AXIS2_PLACEMENT_3D('',#66,#67,#68);
#70=CIRCLE('',#69,0.0870000000000000);
#71=EDGE_CURVE('',#27,#65,#70,.T.);
#72=ORIENTED_EDGE('',*,*,#71,.T.);
#73=CARTESIAN_POINT('',(0.907621123691172,2.15667337417603,0.187480143684629));
#74=VERTEX_POINT('',#73);
#75=CARTESIAN_POINT('',(0.907621123691172,5.15667337417603,0.187480143684629));
#76=DIRECTION('',(0.00000000000000,-1.00000000000000,0.00000000000000));
#77=VECTOR('',#76,1.00000000000000);
#78=LINE('',#75,#77);
#79=EDGE_CURVE('',#65,#74,#78,.T.);
#80=ORIENTED_EDGE('',*,*,#79,.T.);
#81=CARTESIAN_POINT('',(0.973662921472880,2.15667337417603,0.244114770422695));
#82=DIRECTION('',(0.00000000000000,-1.00000000000000,6.12323399573677E-17));
#83=DIRECTION('',(1.00000000000000,0.00000000000000,0.00000000000000));
#84=AXIS2_PLACEMENT_3D('',#81,#82,#83);
#85=CIRCLE('',#84,0.0870000000000000);
#86=EDGE_CURVE('',#74,#35,#85,.T.);
#87=ORIENTED_EDGE('',*,*,#86,.T.);
#88=ORIENTED_EDGE('',*,*,#40,.T.);
#89=EDGE_LOOP('',(#72,#80,#87,#88));
#90=FACE_OUTER_BOUND('',#89,.T.);
#91=CARTESIAN_POINT('',(0.973662921472880,5.15667337417603,0.244114770422695));
#92=DIRECTION('',(0.00000000000000,1.00000000000000,0.00000000000000));
#93=DIRECTION('',(1.00000000000000,-0.00000000000000,0.00000000000000));
#94=AXIS2_PLACEMENT_3D('',#91,#92,#93);
#95=CYLINDRICAL_SURFACE('',#94,0.0870000000000000);
#96=ADVANCED_FACE('',(#90),#95,.F.);
#97=CARTESIAN_POINT('',(0.470378876308828,8.15667337417603,0.187480143684629));
#98=VERTEX_POINT('',#97);
#99=CARTESIAN_POINT('',(0.689000000000000,8.15667337417603,0.00000000000000));
#100=DIRECTION('',(0.00000000000000,-1.00000000000000,6.12323399573677E-17));
#101=DIRECTION('',(1.00000000000000,0.00000000000000,0.00000000000000));
#102=AXIS2_PLACEMENT_3D('',#99,#100,#101);
#103=CIRCLE('',#102,0.288000000000000);
#104=EDGE_CURVE('',#65,#98,#103,.T.);
#105=ORIENTED_EDGE('',*,*,#104,.T.);
#106=CARTESIAN_POINT('',(0.470378876308828,2.15667337417603,0.187480143684629));
#107=VERTEX_POINT('',#106);
#108=CARTESIAN_POINT('',(0.470378876308828,5.15667337417603,0.187480143684629));
#109=DIRECTION('',(0.00000000000000,-1.00000000000000,0.00000000000000));
#110=VECTOR('',#109,1.00000000000000);
#111=LINE('',#108,#110);
#112=EDGE_CURVE('',#98,#107,#111,.T.);
#113=ORIENTED_EDGE('',*,*,#112,.T.);
#114=CARTESIAN_POINT('',(0.689000000000000,2.15667337417603,0.00000000000000));
#115=DIRECTION('',(0.00000000000000,1.00000000000000,-6.12323399573677E-17));
#116=DIRECTION('',(1.00000000000000,0.00000000000000,0.00000000000000));
#117=AXIS2_PLACEMENT_3D('',#114,#115,#116);
#118=CIRCLE('',#117,0.288000000000000);
#119=EDGE_CURVE('',#107,#74,#118,.T.);
#120=ORIENTED_EDGE('',*,*,#119,.T.);
#121=ORIENTED_EDGE('',*,*,#79,.F.);
#122=EDGE_LOOP('',(#105,#113,#120,#121));
#123=FACE_OUTER_BOUND('',#122,.T.);
#124=CARTESIAN_POINT('',(0.689000000000000,5.15667337417603,0.00000000000000));
#125=DIRECTION('',(0.00000000000000,1.00000000000000,0.00000000000000));
#126=DIRECTION('',(1.00000000000000,-0.00000000000000,0.00000000000000));
#127=AXIS2_PLACEMENT_3D('',#124,#125,#126);
#128=CYLINDRICAL_SURFACE('',#127,0.288000000000000);
#129=ADVANCED_FACE('',(#123),#128,.T.);
#130=CARTESIAN_POINT('',(0.411541392580681,8.15667337417603,0.157413571705389));
#131=VERTEX_POINT('',#130);
#132=CARTESIAN_POINT('',(0.404337078527120,8.15667337417603,0.244114770422694));
#133=DIRECTION('',(0.00000000000000,1.00000000000000,-6.12323399573677E-17));
#134=DIRECTION('',(1.00000000000000,0.00000000000000,0.00000000000000));
#135=AXIS2_PLACEMENT_3D('',#132,#133,#134);
#136=CIRCLE('',#135,0.0870000000000000);
#137=EDGE_CURVE('',#98,#131,#136,.T.);
#138=ORIENTED_EDGE('',*,*,#137,.T.);
#139=CARTESIAN_POINT('',(0.411541392580681,2.15667337417603,0.157413571705389));
#140=VERTEX_POINT('',#139);
#141=CARTESIAN_POINT('',(0.411541392580681,5.15667337417603,0.157413571705389));
#142=DIRECTION('',(0.00000000000000,-1.00000000000000,0.00000000000000));
#143=VECTOR('',#142,1.00000000000000);
#144=LINE('',#141,#143);
#145=EDGE_CURVE('',#131,#140,#144,.T.);
#146=ORIENTED_EDGE('',*,*,#145,.T.);
#147=CARTESIAN_POINT('',(0.404337078527120,2.15667337417603,0.244114770422694));
#148=DIRECTION('',(0.00000000000000,-1.00000000000000,6.12323399573677E-17));
#149=DIRECTION('',(1.00000000000000,0.00000000000000,0.00000000000000));
#150=AXIS2_PLACEMENT_3D('',#147,#148,#149);
#151=CIRCLE('',#150,0.0870000000000000);
#152=EDGE_CURVE('',#140,#107,#151,.T.);
#153=ORIENTED_EDGE('',*,*,#152,.T.);
#154=ORIENTED_EDGE('',*,*,#112,.F.);
#155=EDGE_LOOP('',(#138,#146,#153,#154));
#156=FACE_OUTER_BOUND('',#155,.T.);
#157=CARTESIAN_POINT('',(0.404337078527120,5.15667337417603,0.244114770422694));
#158=DIRECTION('',(0.00000000000000,1.00000000000000,0.00000000000000));
#159=DIRECTION('',(1.00000000000000,-0.00000000000000,0.00000000000000));
#160=AXIS2_PLACEMENT_3D('',#157,#158,#159);
#161=CYLINDRICAL_SURFACE('',#160,0.0870000000000000);
#162=ADVANCED_FACE('',(#156),#161,.F.);
#163=CARTESIAN_POINT('',(-0.00521691707326880,8.15667337417603,0.122783626657359));
#164=VERTEX_POINT('',#163);
#165=CARTESIAN_POINT('',(-0.00521691707326880,8.15667337417603,0.122783626657359));
#166=DIRECTION('',(-0.996565502497762,-0.00000000000000,-0.0828082075122042));
#167=VECTOR('',#166,1.00000000000000);
#168=LINE('',#165,#167);
#169=EDGE_CURVE('',#131,#164,#168,.T.);
#170=ORIENTED_EDGE('',*,*,#169,.T.);
#171=CARTESIAN_POINT('',(-0.00521691707326880,2.15667337417603,0.122783626657359));
#172=VERTEX_POINT('',#171);
#173=CARTESIAN_POINT('',(-0.00521691707326880,5.15667337417603,0.122783626657359));
#174=DIRECTION('',(0.00000000000000,-1.00000000000000,0.00000000000000));
#175=VECTOR('',#174,1.00000000000000);
#176=LINE('',#173,#175);
#177=EDGE_CURVE('',#164,#172,#176,.T.);
#178=ORIENTED_EDGE('',*,*,#177,.T.);
#179=CARTESIAN_POINT('',(-0.00521691707326880,2.15667337417603,0.122783626657359));
#180=DIRECTION('',(0.996565502497762,0.00000000000000,0.0828082075122042));
#181=VECTOR('',#180,1.00000000000000);
#182=LINE('',#179,#181);
#183=EDGE_CURVE('',#172,#140,#182,.T.);
#184=ORIENTED_EDGE('',*,*,#183,.T.);
#185=ORIENTED_EDGE('',*,*,#145,.F.);
#186=EDGE_LOOP('',(#170,#178,#184,#185));
#187=FACE_OUTER_BOUND('',#186,.T.);
#188=CARTESIAN_POINT('',(0.203162237753706,5.15667337417603,0.140098599181374));
#189=DIRECTION('',(-0.0828082075122042,0.00000000000000,0.996565502497762));
#190=DIRECTION('',(0.996565502497762,0.00000000000000,0.0828082075122042));
#191=AXIS2_PLACEMENT_3D('',#188,#189,#190);
#192=PLANE('',#191);
#193=ADVANCED_FACE('',(#187),#192,.T.);
#194=CARTESIAN_POINT('',(0.00000000000000,8.15667337417603,0.0599999999999996));
#195=VERTEX_POINT('',#194);
#196=CARTESIAN_POINT('',(-0.00521691707326880,8.15667337417603,0.122783626657359));
#197=DIRECTION('',(0.0828082075122027,0.00000000000000,-0.996565502497762));
#198=VECTOR('',#197,1.00000000000000);
#199=LINE('',#196,#198);
#200=EDGE_CURVE('',#164,#195,#199,.T.);
#201=ORIENTED_EDGE('',*,*,#200,.T.);
#202=CARTESIAN_POINT('',(0.00000000000000,2.15667337417603,0.0599999999999996));
#203=VERTEX_POINT('',#202);
#204=CARTESIAN_POINT('',(0.00000000000000,5.15667337417603,0.0599999999999996));
#205=DIRECTION('',(0.00000000000000,1.00000000000000,0.00000000000000));
#206=VECTOR('',#205,1.00000000000000);
#207=LINE('',#204,#206);
#208=EDGE_CURVE('',#203,#195,#207,.T.);
#209=ORIENTED_EDGE('',*,*,#208,.F.);
#210=CARTESIAN_POINT('',(-0.00521691707326880,2.15667337417603,0.122783626657359));
#211=DIRECTION('',(-0.0828082075122027,0.00000000000000,0.996565502497762));
#212=VECTOR('',#211,1.00000000000000);
#213=LINE('',#210,#212);
#214=EDGE_CURVE('',#203,#172,#213,.T.);
#215=ORIENTED_EDGE('',*,*,#214,.T.);
#216=ORIENTED_EDGE('',*,*,#177,.F.);
#217=EDGE_LOOP('',(#201,#209,#215,#216));
#218=FACE_OUTER_BOUND('',#217,.T.);
#219=CARTESIAN_POINT('',(-0.00260845853663440,5.15667337417603,0.0913918133286793));
#220=DIRECTION('',(-0.996565502497762,0.00000000000000,-0.0828082075122027));
#221=DIRECTION('',(-0.0828082075122027,-0.00000000000000,0.996565502497762));
#222=AXIS2_PLACEMENT_3D('',#219,#220,#221);
#223=PLANE('',#222);
#224=ADVANCED_FACE('',(#218),#223,.T.);
#225=CARTESIAN_POINT('',(0.416758309653949,8.15667337417603,0.0946299450480295));
#226=VERTEX_POINT('',#225);
#227=CARTESIAN_POINT('',(0.00000000000000,8.15667337417603,0.0599999999999996));
#228=DIRECTION('',(0.996565502497762,0.00000000000000,0.0828082075122044));
#229=VECTOR('',#228,1.00000000000000);
#230=LINE('',#227,#229);
#231=EDGE_CURVE('',#195,#226,#230,.T.);
#232=ORIENTED_EDGE('',*,*,#231,.T.);
#233=CARTESIAN_POINT('',(0.416758309653949,2.15667337417603,0.0946299450480295));
#234=VERTEX_POINT('',#233);
#235=CARTESIAN_POINT('',(0.416758309653949,5.15667337417603,0.0946299450480295));
#236=DIRECTION('',(0.00000000000000,1.00000000000000,0.00000000000000));
#237=VECTOR('',#236,1.00000000000000);
#238=LINE('',#235,#237);
#239=EDGE_CURVE('',#234,#226,#238,.T.);
#240=ORIENTED_EDGE('',*,*,#239,.F.);
#241=CARTESIAN_POINT('',(0.00000000000000,2.15667337417603,0.0599999999999996));
#242=DIRECTION('',(-0.996565502497762,-0.00000000000000,-0.0828082075122044));
#243=VECTOR('',#242,1.00000000000000);
#244=LINE('',#241,#243);
#245=EDGE_CURVE('',#234,#203,#244,.T.);
#246=ORIENTED_EDGE('',*,*,#245,.T.);
#247=ORIENTED_EDGE('',*,*,#208,.T.);
#248=EDGE_LOOP('',(#232,#240,#246,#247));
#249=FACE_OUTER_BOUND('',#248,.T.);
#250=CARTESIAN_POINT('',(0.208379154826975,5.15667337417603,0.0773149725240145));
#251=DIRECTION('',(0.0828082075122044,0.00000000000000,-0.996565502497762));
#252=DIRECTION('',(-0.996565502497762,-0.00000000000000,-0.0828082075122044));
#253=AXIS2_PLACEMENT_3D('',#250,#251,#252);
#254=PLANE('',#253);
#255=ADVANCED_FACE('',(#249),#254,.T.);
#256=CARTESIAN_POINT('',(0.518202247116271,8.15667337417603,0.146468862253616));
#257=VERTEX_POINT('',#256);
#258=CARTESIAN_POINT('',(0.404337078527118,8.15667337417603,0.244114770422693));
#259=DIRECTION('',(0.00000000000000,-1.00000000000000,6.12323399573677E-17));
#260=DIRECTION('',(1.00000000000000,0.00000000000000,0.00000000000000));
#261=AXIS2_PLACEMENT_3D('',#258,#259,#260);
#262=CIRCLE('',#261,0.150000000000000);
#263=EDGE_CURVE('',#226,#257,#262,.T.);
#264=ORIENTED_EDGE('',*,*,#263,.T.);
#265=CARTESIAN_POINT('',(0.518202247116271,2.15667337417603,0.146468862253616));
#266=VERTEX_POINT('',#265);
#267=CARTESIAN_POINT('',(0.518202247116271,5.15667337417603,0.146468862253616));
#268=DIRECTION('',(0.00000000000000,-1.00000000000000,0.00000000000000));
#269=VECTOR('',#268,1.00000000000000);
#270=LINE('',#267,#269);
#271=EDGE_CURVE('',#257,#266,#270,.T.);
#272=ORIENTED_EDGE('',*,*,#271,.T.);
#273=CARTESIAN_POINT('',(0.404337078527118,2.15667337417603,0.244114770422693));
#274=DIRECTION('',(0.00000000000000,1.00000000000000,-6.12323399573677E-17));
#275=DIRECTION('',(1.00000000000000,0.00000000000000,0.00000000000000));
#276=AXIS2_PLACEMENT_3D('',#273,#274,#275);
#277=CIRCLE('',#276,0.150000000000000);
#278=EDGE_CURVE('',#266,#234,#277,.T.);
#279=ORIENTED_EDGE('',*,*,#278,.T.);
#280=ORIENTED_EDGE('',*,*,#239,.T.);
#281=EDGE_LOOP('',(#264,#272,#279,#280));
#282=FACE_OUTER_BOUND('',#281,.T.);
#283=CARTESIAN_POINT('',(0.404337078527118,5.15667337417603,0.244114770422693));
#284=DIRECTION('',(0.00000000000000,1.00000000000000,0.00000000000000));
#285=DIRECTION('',(1.00000000000000,-0.00000000000000,0.00000000000000));
#286=AXIS2_PLACEMENT_3D('',#283,#284,#285);
#287=CYLINDRICAL_SURFACE('',#286,0.150000000000000);
#288=ADVANCED_FACE('',(#282),#287,.T.);
#289=CARTESIAN_POINT('',(0.859797752883728,8.15667337417603,0.146468862253617));
#290=VERTEX_POINT('',#289);
#291=CARTESIAN_POINT('',(0.689000000000000,8.15667337417603,0.00000000000000));
#292=DIRECTION('',(0.00000000000000,1.00000000000000,-6.12323399573677E-17));
#293=DIRECTION('',(1.00000000000000,0.00000000000000,0.00000000000000));
#294=AXIS2_PLACEMENT_3D('',#291,#292,#293);
#295=CIRCLE('',#294,0.225000000000000);
#296=EDGE_CURVE('',#257,#290,#295,.T.);
#297=ORIENTED_EDGE('',*,*,#296,.T.);
#298=CARTESIAN_POINT('',(0.859797752883728,2.15667337417603,0.146468862253617));
#299=VERTEX_POINT('',#298);
#300=CARTESIAN_POINT('',(0.859797752883728,5.15667337417603,0.146468862253617));
#301=DIRECTION('',(0.00000000000000,1.00000000000000,0.00000000000000));
#302=VECTOR('',#301,1.00000000000000);
#303=LINE('',#300,#302);
#304=EDGE_CURVE('',#299,#290,#303,.T.);
#305=ORIENTED_EDGE('',*,*,#304,.F.);
#306=CARTESIAN_POINT('',(0.689000000000000,2.15667337417603,0.00000000000000));
#307=DIRECTION('',(0.00000000000000,-1.00000000000000,6.12323399573677E-17));
#308=DIRECTION('',(1.00000000000000,0.00000000000000,0.00000000000000));
#309=AXIS2_PLACEMENT_3D('',#306,#307,#308);
#310=CIRCLE('',#309,0.225000000000000);
#311=EDGE_CURVE('',#299,#266,#310,.T.);
#312=ORIENTED_EDGE('',*,*,#311,.T.);
#313=ORIENTED_EDGE('',*,*,#271,.F.);
#314=EDGE_LOOP('',(#297,#305,#312,#313));
#315=FACE_OUTER_BOUND('',#314,.T.);
#316=CARTESIAN_POINT('',(0.689000000000000,5.15667337417603,0.00000000000000));
#317=DIRECTION('',(0.00000000000000,1.00000000000000,0.00000000000000));
#318=DIRECTION('',(1.00000000000000,-0.00000000000000,0.00000000000000));
#319=AXIS2_PLACEMENT_3D('',#316,#317,#318);
#320=CYLINDRICAL_SURFACE('',#319,0.225000000000000);
#321=ADVANCED_FACE('',(#315),#320,.F.);
#322=CARTESIAN_POINT('',(0.961241690346049,8.15667337417603,0.0946299450480300));
#323=VERTEX_POINT('',#322);
#324=CARTESIAN_POINT('',(0.973662921472880,8.15667337417603,0.244114770422694));
#325=DIRECTION('',(0.00000000000000,-1.00000000000000,6.12323399573677E-17));
#326=DIRECTION('',(1.00000000000000,0.00000000000000,0.00000000000000));
#327=AXIS2_PLACEMENT_3D('',#324,#325,#326);
#328=CIRCLE('',#327,0.150000000000000);
#329=EDGE_CURVE('',#290,#323,#328,.T.);
#330=ORIENTED_EDGE('',*,*,#329,.T.);
#331=CARTESIAN_POINT('',(0.961241690346049,2.15667337417603,0.0946299450480300));
#332=VERTEX_POINT('',#331);
#333=CARTESIAN_POINT('',(0.961241690346049,5.15667337417603,0.0946299450480300));
#334=DIRECTION('',(0.00000000000000,-1.00000000000000,0.00000000000000));
#335=VECTOR('',#334,1.00000000000000);
#336=LINE('',#333,#335);
#337=EDGE_CURVE('',#323,#332,#336,.T.);
#338=ORIENTED_EDGE('',*,*,#337,.T.);
#339=CARTESIAN_POINT('',(0.973662921472880,2.15667337417603,0.244114770422694));
#340=DIRECTION('',(0.00000000000000,1.00000000000000,-6.12323399573677E-17));
#341=DIRECTION('',(1.00000000000000,0.00000000000000,0.00000000000000));
#342=AXIS2_PLACEMENT_3D('',#339,#340,#341);
#343=CIRCLE('',#342,0.150000000000000);
#344=EDGE_CURVE('',#332,#299,#343,.T.);
#345=ORIENTED_EDGE('',*,*,#344,.T.);
#346=ORIENTED_EDGE('',*,*,#304,.T.);
#347=EDGE_LOOP('',(#330,#338,#345,#346));
#348=FACE_OUTER_BOUND('',#347,.T.);
#349=CARTESIAN_POINT('',(0.973662921472880,5.15667337417603,0.244114770422694));
#350=DIRECTION('',(0.00000000000000,1.00000000000000,0.00000000000000));
#351=DIRECTION('',(1.00000000000000,-0.00000000000000,0.00000000000000));
#352=AXIS2_PLACEMENT_3D('',#349,#350,#351);
#353=CYLINDRICAL_SURFACE('',#352,0.150000000000000);
#354=ADVANCED_FACE('',(#348),#353,.T.);
#355=CARTESIAN_POINT('',(1.37800000000000,8.15667337417603,0.0599999999999996));
#356=VERTEX_POINT('',#355);
#357=CARTESIAN_POINT('',(0.961241690346049,8.15667337417603,0.0946299450480295));
#358=DIRECTION('',(0.996565502497761,0.00000000000000,-0.0828082075122040));
#359=VECTOR('',#358,1.00000000000000);
#360=LINE('',#357,#359);
#361=EDGE_CURVE('',#323,#356,#360,.T.);
#362=ORIENTED_EDGE('',*,*,#361,.T.);
#363=CARTESIAN_POINT('',(1.37800000000000,2.15667337417603,0.0599999999999996));
#364=VERTEX_POINT('',#363);
#365=CARTESIAN_POINT('',(1.37800000000000,5.15667337417603,0.0599999999999996));
#366=DIRECTION('',(0.00000000000000,-1.00000000000000,0.00000000000000));
#367=VECTOR('',#366,1.00000000000000);
#368=LINE('',#365,#367);
#369=EDGE_CURVE('',#356,#364,#368,.T.);
#370=ORIENTED_EDGE('',*,*,#369,.T.);
#371=CARTESIAN_POINT('',(0.961241690346049,2.15667337417603,0.0946299450480295));
#372=DIRECTION('',(-0.996565502497761,0.00000000000000,0.0828082075122040));
#373=VECTOR('',#372,1.00000000000000);
#374=LINE('',#371,#373);
#375=EDGE_CURVE('',#364,#332,#374,.T.);
#376=ORIENTED_EDGE('',*,*,#375,.T.);
#377=ORIENTED_EDGE('',*,*,#337,.F.);
#378=EDGE_LOOP('',(#362,#370,#376,#377));
#379=FACE_OUTER_BOUND('',#378,.T.);
#380=CARTESIAN_POINT('',(1.16962084517302,5.15667337417603,0.0773149725240145));
#381=DIRECTION('',(-0.0828082075122040,0.00000000000000,-0.996565502497761));
#382=DIRECTION('',(-0.996565502497761,-0.00000000000000,0.0828082075122040));
#383=AXIS2_PLACEMENT_3D('',#380,#381,#382);
#384=PLANE('',#383);
#385=ADVANCED_FACE('',(#379),#384,.T.);
#386=CARTESIAN_POINT('',(1.38321691707327,8.15667337417603,0.122783626657359));
#387=DIRECTION('',(0.0828082075122091,0.00000000000000,0.996565502497761));
#388=VECTOR('',#387,1.00000000000000);
#389=LINE('',#386,#388);
#390=EDGE_CURVE('',#356,#25,#389,.T.);
#391=ORIENTED_EDGE('',*,*,#390,.T.);
#392=ORIENTED_EDGE('',*,*,#54,.F.);
#393=CARTESIAN_POINT('',(1.38321691707327,2.15667337417603,0.122783626657359));
#394=DIRECTION('',(-0.0828082075122091,0.00000000000000,-0.996565502497761));
#395=VECTOR('',#394,1.00000000000000);
#396=LINE('',#393,#395);
#397=EDGE_CURVE('',#43,#364,#396,.T.);
#398=ORIENTED_EDGE('',*,*,#397,.T.);
#399=ORIENTED_EDGE('',*,*,#369,.F.);
#400=EDGE_LOOP('',(#391,#392,#398,#399));
#401=FACE_OUTER_BOUND('',#400,.T.);
#402=CARTESIAN_POINT('',(1.38060845853663,5.15667337417603,0.0913918133286793));
#403=DIRECTION('',(0.996565502497761,0.00000000000000,-0.0828082075122092));
#404=DIRECTION('',(-0.0828082075122091,0.00000000000000,-0.996565502497761));
#405=AXIS2_PLACEMENT_3D('',#402,#403,#404);
#406=PLANE('',#405);
#407=ADVANCED_FACE('',(#401),#406,.T.);
#408=ORIENTED_EDGE('',*,*,#32,.F.);
#409=ORIENTED_EDGE('',*,*,#390,.F.);
#410=ORIENTED_EDGE('',*,*,#361,.F.);
#411=ORIENTED_EDGE('',*,*,#329,.F.);
#412=ORIENTED_EDGE('',*,*,#296,.F.);
#413=ORIENTED_EDGE('',*,*,#263,.F.);
#414=ORIENTED_EDGE('',*,*,#231,.F.);
#415=ORIENTED_EDGE('',*,*,#200,.F.);
#416=ORIENTED_EDGE('',*,*,#169,.F.);
#417=ORIENTED_EDGE('',*,*,#137,.F.);
#418=ORIENTED_EDGE('',*,*,#104,.F.);
#419=ORIENTED_EDGE('',*,*,#71,.F.);
#420=EDGE_LOOP('',(#408,#409,#410,#411,#412,#413,#414,#415,#416,#417,#418,#419));
#421=FACE_OUTER_BOUND('',#420,.T.);
#422=CARTESIAN_POINT('',(1.38158754344836,8.15667337417603,0.103174730461599));
#423=DIRECTION('',(0.00000000000000,1.00000000000000,0.00000000000000));
#424=DIRECTION('',(-1.00000000000000,0.00000000000000,0.00000000000000));
#425=AXIS2_PLACEMENT_3D('',#422,#423,#424);
#426=PLANE('',#425);
#427=ADVANCED_FACE('',(#421),#426,.T.);
#428=ORIENTED_EDGE('',*,*,#375,.F.);
#429=ORIENTED_EDGE('',*,*,#397,.F.);
#430=ORIENTED_EDGE('',*,*,#48,.F.);
#431=ORIENTED_EDGE('',*,*,#86,.F.);
#432=ORIENTED_EDGE('',*,*,#119,.F.);
#433=ORIENTED_EDGE('',*,*,#152,.F.);
#434=ORIENTED_EDGE('',*,*,#183,.F.);
#435=ORIENTED_EDGE('',*,*,#214,.F.);
#436=ORIENTED_EDGE('',*,*,#245,.F.);
#437=ORIENTED_EDGE('',*,*,#278,.F.);
#438=ORIENTED_EDGE('',*,*,#311,.F.);
#439=ORIENTED_EDGE('',*,*,#344,.F.);
#440=EDGE_LOOP('',(#428,#429,#430,#431,#432,#433,#434,#435,#436,#437,#438,#439));
#441=FACE_OUTER_BOUND('',#440,.T.);
#442=CARTESIAN_POINT('',(1.38158754344836,2.15667337417603,0.103174730461599));
#443=DIRECTION('',(0.00000000000000,1.00000000000000,0.00000000000000));
#444=DIRECTION('',(-1.00000000000000,0.00000000000000,0.00000000000000));
#445=AXIS2_PLACEMENT_3D('',#442,#443,#444);
#446=PLANE('',#445);
#447=ADVANCED_FACE('',(#441),#446,.F.);
#448=CLOSED_SHELL('',(#63,#96,#129,#162,#193,#224,#255,#288,#321,#354,#385,#407,#427,#447));
#449=MANIFOLD_SOLID_BREP('',#448);
#450=COLOUR_RGB('',1.00000000000000,0.00000000000000,0.00000000000000);
#451=FILL_AREA_STYLE_COLOUR('',#450);
#452=FILL_AREA_STYLE('',(#451));
#453=SURFACE_STYLE_FILL_AREA(#452);
#454=SURFACE_SIDE_STYLE('',(#453));
#455=SURFACE_STYLE_USAGE(.BOTH.,#454);
#456=PRESENTATION_STYLE_ASSIGNMENT((#455));
#457=STYLED_ITEM('',(#456),#449);
#458=ADVANCED_BREP_SHAPE_REPRESENTATION('',(#449,#23),#18);
#459=PRODUCT('', '', ' ',(#2));
#460=PRODUCT_DEFINITION_FORMATION_WITH_SPECIFIED_SOURCE (' ', ' ', #459, .NOT_KNOWN.) ;
#461=PRODUCT_CATEGORY('part','') ;
#462=PRODUCT_RELATED_PRODUCT_CATEGORY('detail', ' ', (#459)) ;
#463=PRODUCT_CATEGORY_RELATIONSHIP(' ', ' ', #461, #462);
#464=PRODUCT_DEFINITION('', '', #460, #1);
#465=PRODUCT_DEFINITION_SHAPE('NONE', 'NONE', #464);
#466=SHAPE_DEFINITION_REPRESENTATION(#465, #458);
#467=PRESENTATION_LAYER_ASSIGNMENT('1','Unnamed [1]',(#449));
#468=MECHANICAL_DESIGN_GEOMETRIC_PRESENTATION_REPRESENTATION('',(#457), #18);
ENDSEC;
END-ISO-10303-21;
