ISO-10303-21;
HEADER;
FILE_DESCRIPTION(('', 'CAx-IF Rec.Pracs.---Representation and Presentation of Product Manufacturing Information (PMI)---4.0---2014-10-13'),'2;1');
FILE_NAME('C:/Program Files/Kubotek/KeyCreatorPro.2021.SP1/STEP/SG1816.STP', '2021-05-20T15:28:46',(''), (''), 'Kubotek Kosmos Version 3.0.7268.7268', 'KeyCreator Pro', '');
FILE_SCHEMA(('AP242_MANAGED_MODEL_BASED_3D_ENGINEERING_MIM_LF  { 1 0 10303 442 1 1 4 }'));
ENDSEC;
DATA;
#1=PRODUCT_DEFINITION_CONTEXT('',#4,'design');
#2=PRODUCT_CONTEXT('',#4,'mechanical');
#3=APPLICATION_PROTOCOL_DEFINITION('international standard','ap242_managed_model_based_3d_engineering',2011,#4);
#4=APPLICATION_CONTEXT('managed model based 3d engineering');
#10=DIMENSIONAL_EXPONENTS(1.0,0.0,0.0,0.0,0.0,0.0,0.0);
#11=DIMENSIONAL_EXPONENTS(0.0,0.0,0.0,0.0,0.0,0.0,0.0);
#12=(LENGTH_UNIT()NAMED_UNIT(#10)SI_UNIT(.MILLI.,.METRE.));
#13=(NAMED_UNIT(#11)PLANE_ANGLE_UNIT()SI_UNIT($,.RADIAN.));
#14=(NAMED_UNIT(#11)SI_UNIT($,.STERADIAN.)SOLID_ANGLE_UNIT());
#15=LENGTH_MEASURE_WITH_UNIT(LENGTH_MEASURE(25.4),#12);
#16= (CONVERSION_BASED_UNIT('INCH',#15)LENGTH_UNIT()NAMED_UNIT(#10));
#17=UNCERTAINTY_MEASURE_WITH_UNIT(LENGTH_MEASURE(1.0E-006),#16,'','');
#18=(GEOMETRIC_REPRESENTATION_CONTEXT(3)GLOBAL_UNCERTAINTY_ASSIGNED_CONTEXT((#17))GLOBAL_UNIT_ASSIGNED_CONTEXT((#16,#13,#14))REPRESENTATION_CONTEXT('NONE','WORKSPACE'));
#20=CARTESIAN_POINT('',(0.00000000000000,0.00000000000000,0.00000000000000));
#21=DIRECTION('',(0.00000000000000,0.00000000000000,1.00000000000000));
#22=DIRECTION('',(1.00000000000000,0.00000000000000,0.00000000000000));
#23=AXIS2_PLACEMENT_3D('',#20,#21,#22);
#24=CARTESIAN_POINT('',(4.38470118721428,-2.30988659068727,-1.05000000000000));
#25=VERTEX_POINT('',#24);
#26=CARTESIAN_POINT('',(4.38470118721428,3.69011340931273,-1.05000000000000));
#27=VERTEX_POINT('',#26);
#28=CARTESIAN_POINT('',(4.38470118721428,0.690113409312734,-1.05000000000000));
#29=DIRECTION('',(2.49265696798596E-32,1.00000000000000,2.03540887847945E-16));
#30=VECTOR('',#29,1.00000000000000);
#31=LINE('',#28,#30);
#32=EDGE_CURVE('',#25,#27,#31,.T.);
#33=ORIENTED_EDGE('',*,*,#32,.T.);
#34=CARTESIAN_POINT('',(4.38470118721428,3.69011340931273,-0.800000000000001));
#35=VERTEX_POINT('',#34);
#36=CARTESIAN_POINT('',(4.38470118721428,3.69011340931273,-1.05000000000000));
#37=DIRECTION('',(1.22464679914735E-16,-4.44089209850063E-16,1.00000000000000));
#38=VECTOR('',#37,1.00000000000000);
#39=LINE('',#36,#38);
#40=EDGE_CURVE('',#27,#35,#39,.T.);
#41=ORIENTED_EDGE('',*,*,#40,.T.);
#42=CARTESIAN_POINT('',(4.38470118721428,-2.30988659068727,-0.800000000000002));
#43=VERTEX_POINT('',#42);
#44=CARTESIAN_POINT('',(4.38470118721428,0.690113409312734,-0.800000000000001));
#45=DIRECTION('',(-2.49265696798596E-32,-1.00000000000000,-2.03540887847945E-16));
#46=VECTOR('',#45,1.00000000000000);
#47=LINE('',#44,#46);
#48=EDGE_CURVE('',#35,#43,#47,.T.);
#49=ORIENTED_EDGE('',*,*,#48,.T.);
#50=CARTESIAN_POINT('',(4.38470118721428,-2.30988659068727,-1.05000000000000));
#51=DIRECTION('',(-1.22464679914735E-16,4.44089209850063E-16,-1.00000000000000));
#52=VECTOR('',#51,1.00000000000000);
#53=LINE('',#50,#52);
#54=EDGE_CURVE('',#43,#25,#53,.T.);
#55=ORIENTED_EDGE('',*,*,#54,.T.);
#56=EDGE_LOOP('',(#33,#41,#49,#55));
#57=FACE_OUTER_BOUND('',#56,.T.);
#58=CARTESIAN_POINT('',(4.38470118721428,0.690113409312734,-0.925000000000001));
#59=DIRECTION('',(1.00000000000000,0.00000000000000,-1.22464679914735E-16));
#60=DIRECTION('',(-1.22464679914735E-16,4.44089209850063E-16,-1.00000000000000));
#61=AXIS2_PLACEMENT_3D('',#58,#59,#60);
#62=PLANE('',#61);
#63=ADVANCED_FACE('',(#57),#62,.T.);
#64=ORIENTED_EDGE('',*,*,#48,.F.);
#65=CARTESIAN_POINT('',(4.15970118721428,3.69011340931273,-0.800000000000000));
#66=VERTEX_POINT('',#65);
#67=CARTESIAN_POINT('',(4.38470118721428,3.69011340931273,-0.800000000000001));
#68=DIRECTION('',(-1.00000000000000,0.00000000000000,1.22464679914735E-16));
#69=VECTOR('',#68,1.00000000000000);
#70=LINE('',#67,#69);
#71=EDGE_CURVE('',#35,#66,#70,.T.);
#72=ORIENTED_EDGE('',*,*,#71,.T.);
#73=CARTESIAN_POINT('',(4.15970118721428,-2.30988659068727,-0.800000000000002));
#74=VERTEX_POINT('',#73);
#75=CARTESIAN_POINT('',(4.15970118721428,0.690113409312734,-0.800000000000001));
#76=DIRECTION('',(2.49265696798596E-32,1.00000000000000,2.03540887847945E-16));
#77=VECTOR('',#76,1.00000000000000);
#78=LINE('',#75,#77);
#79=EDGE_CURVE('',#74,#66,#78,.T.);
#80=ORIENTED_EDGE('',*,*,#79,.F.);
#81=CARTESIAN_POINT('',(4.38470118721428,-2.30988659068727,-0.800000000000002));
#82=DIRECTION('',(1.00000000000000,-0.00000000000000,-1.22464679914735E-16));
#83=VECTOR('',#82,1.00000000000000);
#84=LINE('',#81,#83);
#85=EDGE_CURVE('',#74,#43,#84,.T.);
#86=ORIENTED_EDGE('',*,*,#85,.T.);
#87=EDGE_LOOP('',(#64,#72,#80,#86));
#88=FACE_OUTER_BOUND('',#87,.T.);
#89=CARTESIAN_POINT('',(4.27220118721428,0.690113409312734,-0.800000000000001));
#90=DIRECTION('',(1.22464679914735E-16,-2.03540887847945E-16,1.00000000000000));
#91=DIRECTION('',(1.00000000000000,-0.00000000000000,-1.22464679914735E-16));
#92=AXIS2_PLACEMENT_3D('',#89,#90,#91);
#93=PLANE('',#92);
#94=ADVANCED_FACE('',(#88),#93,.T.);
#95=ORIENTED_EDGE('',*,*,#79,.T.);
#96=CARTESIAN_POINT('',(4.15970118721428,3.69011340931273,-0.600000000000001));
#97=VERTEX_POINT('',#96);
#98=CARTESIAN_POINT('',(4.15970118721428,3.69011340931273,-0.800000000000001));
#99=DIRECTION('',(1.22464679914735E-16,0.00000000000000,1.00000000000000));
#100=VECTOR('',#99,1.00000000000000);
#101=LINE('',#98,#100);
#102=EDGE_CURVE('',#66,#97,#101,.T.);
#103=ORIENTED_EDGE('',*,*,#102,.T.);
#104=CARTESIAN_POINT('',(4.15970118721428,-2.30988659068727,-0.600000000000002));
#105=VERTEX_POINT('',#104);
#106=CARTESIAN_POINT('',(4.15970118721428,0.690113409312734,-0.600000000000001));
#107=DIRECTION('',(-2.49265696798596E-32,-1.00000000000000,-2.03540887847945E-16));
#108=VECTOR('',#107,1.00000000000000);
#109=LINE('',#106,#108);
#110=EDGE_CURVE('',#97,#105,#109,.T.);
#111=ORIENTED_EDGE('',*,*,#110,.T.);
#112=CARTESIAN_POINT('',(4.15970118721428,-2.30988659068727,-0.800000000000002));
#113=DIRECTION('',(-1.22464679914735E-16,0.00000000000000,-1.00000000000000));
#114=VECTOR('',#113,1.00000000000000);
#115=LINE('',#112,#114);
#116=EDGE_CURVE('',#105,#74,#115,.T.);
#117=ORIENTED_EDGE('',*,*,#116,.T.);
#118=EDGE_LOOP('',(#95,#103,#111,#117));
#119=FACE_OUTER_BOUND('',#118,.T.);
#120=CARTESIAN_POINT('',(4.15970118721428,0.690113409312734,-0.700000000000001));
#121=DIRECTION('',(1.00000000000000,0.00000000000000,-1.22464679914735E-16));
#122=DIRECTION('',(-1.22464679914735E-16,0.00000000000000,-1.00000000000000));
#123=AXIS2_PLACEMENT_3D('',#120,#121,#122);
#124=PLANE('',#123);
#125=ADVANCED_FACE('',(#119),#124,.T.);
#126=ORIENTED_EDGE('',*,*,#110,.F.);
#127=CARTESIAN_POINT('',(5.00970118721428,3.69011340931273,-0.600000000000001));
#128=VERTEX_POINT('',#127);
#129=CARTESIAN_POINT('',(5.00970118721428,3.69011340931273,-0.600000000000001));
#130=DIRECTION('',(1.00000000000000,-0.00000000000000,-1.22464679914735E-16));
#131=VECTOR('',#130,1.00000000000000);
#132=LINE('',#129,#131);
#133=EDGE_CURVE('',#97,#128,#132,.T.);
#134=ORIENTED_EDGE('',*,*,#133,.T.);
#135=CARTESIAN_POINT('',(5.00970118721428,-2.30988659068727,-0.600000000000002));
#136=VERTEX_POINT('',#135);
#137=CARTESIAN_POINT('',(5.00970118721428,0.690113409312734,-0.600000000000001));
#138=DIRECTION('',(-2.49265696798596E-32,-1.00000000000000,-2.03540887847945E-16));
#139=VECTOR('',#138,1.00000000000000);
#140=LINE('',#137,#139);
#141=EDGE_CURVE('',#128,#136,#140,.T.);
#142=ORIENTED_EDGE('',*,*,#141,.T.);
#143=CARTESIAN_POINT('',(5.00970118721428,-2.30988659068727,-0.600000000000002));
#144=DIRECTION('',(-1.00000000000000,0.00000000000000,1.22464679914735E-16));
#145=VECTOR('',#144,1.00000000000000);
#146=LINE('',#143,#145);
#147=EDGE_CURVE('',#136,#105,#146,.T.);
#148=ORIENTED_EDGE('',*,*,#147,.T.);
#149=EDGE_LOOP('',(#126,#134,#142,#148));
#150=FACE_OUTER_BOUND('',#149,.T.);
#151=CARTESIAN_POINT('',(4.58470118721428,0.690113409312734,-0.600000000000001));
#152=DIRECTION('',(-1.22464679914735E-16,2.03540887847945E-16,-1.00000000000000));
#153=DIRECTION('',(-1.00000000000000,0.00000000000000,1.22464679914735E-16));
#154=AXIS2_PLACEMENT_3D('',#151,#152,#153);
#155=PLANE('',#154);
#156=ADVANCED_FACE('',(#150),#155,.T.);
#157=ORIENTED_EDGE('',*,*,#141,.F.);
#158=CARTESIAN_POINT('',(5.00970118721428,3.69011340931273,-0.350000000000001));
#159=VERTEX_POINT('',#158);
#160=CARTESIAN_POINT('',(5.00970118721428,3.69011340931273,-0.600000000000001));
#161=DIRECTION('',(1.22464679914735E-16,0.00000000000000,1.00000000000000));
#162=VECTOR('',#161,1.00000000000000);
#163=LINE('',#160,#162);
#164=EDGE_CURVE('',#128,#159,#163,.T.);
#165=ORIENTED_EDGE('',*,*,#164,.T.);
#166=CARTESIAN_POINT('',(5.00970118721428,-2.30988659068727,-0.350000000000002));
#167=VERTEX_POINT('',#166);
#168=CARTESIAN_POINT('',(5.00970118721428,0.690113409312734,-0.350000000000001));
#169=DIRECTION('',(2.49265696798596E-32,1.00000000000000,2.03540887847945E-16));
#170=VECTOR('',#169,1.00000000000000);
#171=LINE('',#168,#170);
#172=EDGE_CURVE('',#167,#159,#171,.T.);
#173=ORIENTED_EDGE('',*,*,#172,.F.);
#174=CARTESIAN_POINT('',(5.00970118721428,-2.30988659068727,-0.600000000000002));
#175=DIRECTION('',(-1.22464679914735E-16,0.00000000000000,-1.00000000000000));
#176=VECTOR('',#175,1.00000000000000);
#177=LINE('',#174,#176);
#178=EDGE_CURVE('',#167,#136,#177,.T.);
#179=ORIENTED_EDGE('',*,*,#178,.T.);
#180=EDGE_LOOP('',(#157,#165,#173,#179));
#181=FACE_OUTER_BOUND('',#180,.T.);
#182=CARTESIAN_POINT('',(5.00970118721428,0.690113409312734,-0.475000000000001));
#183=DIRECTION('',(1.00000000000000,0.00000000000000,-1.22464679914735E-16));
#184=DIRECTION('',(-1.22464679914735E-16,0.00000000000000,-1.00000000000000));
#185=AXIS2_PLACEMENT_3D('',#182,#183,#184);
#186=PLANE('',#185);
#187=ADVANCED_FACE('',(#181),#186,.T.);
#188=ORIENTED_EDGE('',*,*,#172,.T.);
#189=CARTESIAN_POINT('',(3.00970118721428,3.69011340931273,-0.350000000000000));
#190=VERTEX_POINT('',#189);
#191=CARTESIAN_POINT('',(5.00970118721428,3.69011340931273,-0.350000000000001));
#192=DIRECTION('',(-1.00000000000000,0.00000000000000,1.22464679914735E-16));
#193=VECTOR('',#192,1.00000000000000);
#194=LINE('',#191,#193);
#195=EDGE_CURVE('',#159,#190,#194,.T.);
#196=ORIENTED_EDGE('',*,*,#195,.T.);
#197=CARTESIAN_POINT('',(3.00970118721428,-2.30988659068727,-0.350000000000002));
#198=VERTEX_POINT('',#197);
#199=CARTESIAN_POINT('',(3.00970118721428,0.690113409312734,-0.350000000000001));
#200=DIRECTION('',(-2.49265696798596E-32,-1.00000000000000,-2.03540887847945E-16));
#201=VECTOR('',#200,1.00000000000000);
#202=LINE('',#199,#201);
#203=EDGE_CURVE('',#190,#198,#202,.T.);
#204=ORIENTED_EDGE('',*,*,#203,.T.);
#205=CARTESIAN_POINT('',(5.00970118721428,-2.30988659068727,-0.350000000000002));
#206=DIRECTION('',(1.00000000000000,0.00000000000000,-2.33486982377251E-16));
#207=VECTOR('',#206,1.00000000000000);
#208=LINE('',#205,#207);
#209=EDGE_CURVE('',#198,#167,#208,.T.);
#210=ORIENTED_EDGE('',*,*,#209,.T.);
#211=EDGE_LOOP('',(#188,#196,#204,#210));
#212=FACE_OUTER_BOUND('',#211,.T.);
#213=CARTESIAN_POINT('',(4.00970118721428,0.690113409312734,-0.350000000000001));
#214=DIRECTION('',(2.33486982377251E-16,-2.03540887847945E-16,1.00000000000000));
#215=DIRECTION('',(1.00000000000000,0.00000000000000,-2.33486982377251E-16));
#216=AXIS2_PLACEMENT_3D('',#213,#214,#215);
#217=PLANE('',#216);
#218=ADVANCED_FACE('',(#212),#217,.T.);
#219=ORIENTED_EDGE('',*,*,#203,.F.);
#220=CARTESIAN_POINT('',(3.00970118721428,3.69011340931273,-0.600000000000000));
#221=VERTEX_POINT('',#220);
#222=CARTESIAN_POINT('',(3.00970118721428,3.69011340931273,-0.350000000000000));
#223=DIRECTION('',(-1.22464679914735E-16,0.00000000000000,-1.00000000000000));
#224=VECTOR('',#223,1.00000000000000);
#225=LINE('',#222,#224);
#226=EDGE_CURVE('',#190,#221,#225,.T.);
#227=ORIENTED_EDGE('',*,*,#226,.T.);
#228=CARTESIAN_POINT('',(3.00970118721428,-2.30988659068727,-0.600000000000001));
#229=VERTEX_POINT('',#228);
#230=CARTESIAN_POINT('',(3.00970118721428,0.690113409312734,-0.600000000000001));
#231=DIRECTION('',(2.49265696798596E-32,1.00000000000000,2.03540887847945E-16));
#232=VECTOR('',#231,1.00000000000000);
#233=LINE('',#230,#232);
#234=EDGE_CURVE('',#229,#221,#233,.T.);
#235=ORIENTED_EDGE('',*,*,#234,.F.);
#236=CARTESIAN_POINT('',(3.00970118721428,-2.30988659068727,-0.350000000000002));
#237=DIRECTION('',(1.22464679914735E-16,-0.00000000000000,1.00000000000000));
#238=VECTOR('',#237,1.00000000000000);
#239=LINE('',#236,#238);
#240=EDGE_CURVE('',#229,#198,#239,.T.);
#241=ORIENTED_EDGE('',*,*,#240,.T.);
#242=EDGE_LOOP('',(#219,#227,#235,#241));
#243=FACE_OUTER_BOUND('',#242,.T.);
#244=CARTESIAN_POINT('',(3.00970118721428,0.690113409312734,-0.475000000000001));
#245=DIRECTION('',(-1.00000000000000,0.00000000000000,1.22464679914735E-16));
#246=DIRECTION('',(1.22464679914735E-16,-0.00000000000000,1.00000000000000));
#247=AXIS2_PLACEMENT_3D('',#244,#245,#246);
#248=PLANE('',#247);
#249=ADVANCED_FACE('',(#243),#248,.T.);
#250=ORIENTED_EDGE('',*,*,#234,.T.);
#251=CARTESIAN_POINT('',(3.85970118721428,3.69011340931273,-0.600000000000000));
#252=VERTEX_POINT('',#251);
#253=CARTESIAN_POINT('',(3.85970118721428,3.69011340931273,-0.600000000000000));
#254=DIRECTION('',(1.00000000000000,0.00000000000000,-2.53079153400048E-16));
#255=VECTOR('',#254,1.00000000000000);
#256=LINE('',#253,#255);
#257=EDGE_CURVE('',#221,#252,#256,.T.);
#258=ORIENTED_EDGE('',*,*,#257,.T.);
#259=CARTESIAN_POINT('',(3.85970118721428,-2.30988659068727,-0.600000000000002));
#260=VERTEX_POINT('',#259);
#261=CARTESIAN_POINT('',(3.85970118721428,0.690113409312734,-0.600000000000001));
#262=DIRECTION('',(-2.49265696798596E-32,-1.00000000000000,-2.03540887847945E-16));
#263=VECTOR('',#262,1.00000000000000);
#264=LINE('',#261,#263);
#265=EDGE_CURVE('',#252,#260,#264,.T.);
#266=ORIENTED_EDGE('',*,*,#265,.T.);
#267=CARTESIAN_POINT('',(3.85970118721428,-2.30988659068727,-0.600000000000002));
#268=DIRECTION('',(-1.00000000000000,0.00000000000000,1.22464679914735E-16));
#269=VECTOR('',#268,1.00000000000000);
#270=LINE('',#267,#269);
#271=EDGE_CURVE('',#260,#229,#270,.T.);
#272=ORIENTED_EDGE('',*,*,#271,.T.);
#273=EDGE_LOOP('',(#250,#258,#266,#272));
#274=FACE_OUTER_BOUND('',#273,.T.);
#275=CARTESIAN_POINT('',(3.43470118721428,0.690113409312734,-0.600000000000001));
#276=DIRECTION('',(-2.53079153400048E-16,2.03540887847945E-16,-1.00000000000000));
#277=DIRECTION('',(-1.00000000000000,0.00000000000000,2.53079153400048E-16));
#278=AXIS2_PLACEMENT_3D('',#275,#276,#277);
#279=PLANE('',#278);
#280=ADVANCED_FACE('',(#274),#279,.T.);
#281=ORIENTED_EDGE('',*,*,#265,.F.);
#282=CARTESIAN_POINT('',(3.85970118721428,3.69011340931273,-0.800000000000000));
#283=VERTEX_POINT('',#282);
#284=CARTESIAN_POINT('',(3.85970118721428,3.69011340931273,-0.800000000000000));
#285=DIRECTION('',(-1.22464679914735E-16,0.00000000000000,-1.00000000000000));
#286=VECTOR('',#285,1.00000000000000);
#287=LINE('',#284,#286);
#288=EDGE_CURVE('',#252,#283,#287,.T.);
#289=ORIENTED_EDGE('',*,*,#288,.T.);
#290=CARTESIAN_POINT('',(3.85970118721428,-2.30988659068727,-0.800000000000002));
#291=VERTEX_POINT('',#290);
#292=CARTESIAN_POINT('',(3.85970118721428,0.690113409312734,-0.800000000000001));
#293=DIRECTION('',(2.49265696798596E-32,1.00000000000000,2.03540887847945E-16));
#294=VECTOR('',#293,1.00000000000000);
#295=LINE('',#292,#294);
#296=EDGE_CURVE('',#291,#283,#295,.T.);
#297=ORIENTED_EDGE('',*,*,#296,.F.);
#298=CARTESIAN_POINT('',(3.85970118721428,-2.30988659068727,-0.800000000000002));
#299=DIRECTION('',(1.22464679914735E-16,0.00000000000000,1.00000000000000));
#300=VECTOR('',#299,1.00000000000000);
#301=LINE('',#298,#300);
#302=EDGE_CURVE('',#291,#260,#301,.T.);
#303=ORIENTED_EDGE('',*,*,#302,.T.);
#304=EDGE_LOOP('',(#281,#289,#297,#303));
#305=FACE_OUTER_BOUND('',#304,.T.);
#306=CARTESIAN_POINT('',(3.85970118721428,0.690113409312734,-0.700000000000001));
#307=DIRECTION('',(-1.00000000000000,0.00000000000000,1.22464679914735E-16));
#308=DIRECTION('',(1.22464679914735E-16,0.00000000000000,1.00000000000000));
#309=AXIS2_PLACEMENT_3D('',#306,#307,#308);
#310=PLANE('',#309);
#311=ADVANCED_FACE('',(#305),#310,.T.);
#312=ORIENTED_EDGE('',*,*,#296,.T.);
#313=CARTESIAN_POINT('',(3.63470118721428,3.69011340931273,-0.800000000000000));
#314=VERTEX_POINT('',#313);
#315=CARTESIAN_POINT('',(3.85970118721428,3.69011340931273,-0.800000000000000));
#316=DIRECTION('',(-1.00000000000000,0.00000000000000,1.22464679914735E-16));
#317=VECTOR('',#316,1.00000000000000);
#318=LINE('',#315,#317);
#319=EDGE_CURVE('',#283,#314,#318,.T.);
#320=ORIENTED_EDGE('',*,*,#319,.T.);
#321=CARTESIAN_POINT('',(3.63470118721428,-2.30988659068727,-0.800000000000002));
#322=VERTEX_POINT('',#321);
#323=CARTESIAN_POINT('',(3.63470118721428,0.690113409312734,-0.800000000000001));
#324=DIRECTION('',(-2.49265696798596E-32,-1.00000000000000,-2.03540887847945E-16));
#325=VECTOR('',#324,1.00000000000000);
#326=LINE('',#323,#325);
#327=EDGE_CURVE('',#314,#322,#326,.T.);
#328=ORIENTED_EDGE('',*,*,#327,.T.);
#329=CARTESIAN_POINT('',(3.85970118721428,-2.30988659068727,-0.800000000000002));
#330=DIRECTION('',(1.00000000000000,-0.00000000000000,-1.22464679914735E-16));
#331=VECTOR('',#330,1.00000000000000);
#332=LINE('',#329,#331);
#333=EDGE_CURVE('',#322,#291,#332,.T.);
#334=ORIENTED_EDGE('',*,*,#333,.T.);
#335=EDGE_LOOP('',(#312,#320,#328,#334));
#336=FACE_OUTER_BOUND('',#335,.T.);
#337=CARTESIAN_POINT('',(3.74720118721428,0.690113409312734,-0.800000000000001));
#338=DIRECTION('',(1.22464679914735E-16,-2.03540887847945E-16,1.00000000000000));
#339=DIRECTION('',(1.00000000000000,-0.00000000000000,-1.22464679914735E-16));
#340=AXIS2_PLACEMENT_3D('',#337,#338,#339);
#341=PLANE('',#340);
#342=ADVANCED_FACE('',(#336),#341,.T.);
#343=ORIENTED_EDGE('',*,*,#327,.F.);
#344=CARTESIAN_POINT('',(3.63470118721428,3.69011340931273,-1.05000000000000));
#345=VERTEX_POINT('',#344);
#346=CARTESIAN_POINT('',(3.63470118721428,3.69011340931273,-1.05000000000000));
#347=DIRECTION('',(-1.22464679914735E-16,4.44089209850063E-16,-1.00000000000000));
#348=VECTOR('',#347,1.00000000000000);
#349=LINE('',#346,#348);
#350=EDGE_CURVE('',#314,#345,#349,.T.);
#351=ORIENTED_EDGE('',*,*,#350,.T.);
#352=CARTESIAN_POINT('',(3.63470118721428,-2.30988659068727,-1.05000000000000));
#353=VERTEX_POINT('',#352);
#354=CARTESIAN_POINT('',(3.63470118721428,0.690113409312734,-1.05000000000000));
#355=DIRECTION('',(-2.49265696798596E-32,-1.00000000000000,-2.03540887847945E-16));
#356=VECTOR('',#355,1.00000000000000);
#357=LINE('',#354,#356);
#358=EDGE_CURVE('',#345,#353,#357,.T.);
#359=ORIENTED_EDGE('',*,*,#358,.T.);
#360=CARTESIAN_POINT('',(3.63470118721428,-2.30988659068727,-1.05000000000000));
#361=DIRECTION('',(1.22464679914735E-16,-4.44089209850063E-16,1.00000000000000));
#362=VECTOR('',#361,1.00000000000000);
#363=LINE('',#360,#362);
#364=EDGE_CURVE('',#353,#322,#363,.T.);
#365=ORIENTED_EDGE('',*,*,#364,.T.);
#366=EDGE_LOOP('',(#343,#351,#359,#365));
#367=FACE_OUTER_BOUND('',#366,.T.);
#368=CARTESIAN_POINT('',(3.63470118721428,0.690113409312734,-0.925000000000001));
#369=DIRECTION('',(-1.00000000000000,0.00000000000000,1.22464679914735E-16));
#370=DIRECTION('',(1.22464679914735E-16,-4.44089209850063E-16,1.00000000000000));
#371=AXIS2_PLACEMENT_3D('',#368,#369,#370);
#372=PLANE('',#371);
#373=ADVANCED_FACE('',(#367),#372,.T.);
#374=ORIENTED_EDGE('',*,*,#358,.F.);
#375=CARTESIAN_POINT('',(3.63470118721428,3.69011340931273,-1.05000000000000));
#376=DIRECTION('',(1.00000000000000,0.00000000000000,-1.22464679914735E-16));
#377=VECTOR('',#376,1.00000000000000);
#378=LINE('',#375,#377);
#379=EDGE_CURVE('',#345,#27,#378,.T.);
#380=ORIENTED_EDGE('',*,*,#379,.T.);
#381=ORIENTED_EDGE('',*,*,#32,.F.);
#382=CARTESIAN_POINT('',(3.63470118721428,-2.30988659068727,-1.05000000000000));
#383=DIRECTION('',(-1.00000000000000,0.00000000000000,1.22464679914735E-16));
#384=VECTOR('',#383,1.00000000000000);
#385=LINE('',#382,#384);
#386=EDGE_CURVE('',#25,#353,#385,.T.);
#387=ORIENTED_EDGE('',*,*,#386,.T.);
#388=EDGE_LOOP('',(#374,#380,#381,#387));
#389=FACE_OUTER_BOUND('',#388,.T.);
#390=CARTESIAN_POINT('',(4.00970118721428,0.690113409312734,-1.05000000000000));
#391=DIRECTION('',(-1.22464679914735E-16,2.03540887847945E-16,-1.00000000000000));
#392=DIRECTION('',(-1.00000000000000,0.00000000000000,1.22464679914735E-16));
#393=AXIS2_PLACEMENT_3D('',#390,#391,#392);
#394=PLANE('',#393);
#395=ADVANCED_FACE('',(#389),#394,.T.);
#396=ORIENTED_EDGE('',*,*,#71,.F.);
#397=ORIENTED_EDGE('',*,*,#40,.F.);
#398=ORIENTED_EDGE('',*,*,#379,.F.);
#399=ORIENTED_EDGE('',*,*,#350,.F.);
#400=ORIENTED_EDGE('',*,*,#319,.F.);
#401=ORIENTED_EDGE('',*,*,#288,.F.);
#402=ORIENTED_EDGE('',*,*,#257,.F.);
#403=ORIENTED_EDGE('',*,*,#226,.F.);
#404=ORIENTED_EDGE('',*,*,#195,.F.);
#405=ORIENTED_EDGE('',*,*,#164,.F.);
#406=ORIENTED_EDGE('',*,*,#133,.F.);
#407=ORIENTED_EDGE('',*,*,#102,.F.);
#408=EDGE_LOOP('',(#396,#397,#398,#399,#400,#401,#402,#403,#404,#405,#406,#407));
#409=FACE_OUTER_BOUND('',#408,.T.);
#410=CARTESIAN_POINT('',(3.86894493721428,3.69011340931273,-1.05000000000000));
#411=DIRECTION('',(2.57466265550404E-32,1.00000000000000,2.10237160403850E-16));
#412=DIRECTION('',(1.00000000000000,0.00000000000000,-1.22464679914735E-16));
#413=AXIS2_PLACEMENT_3D('',#410,#411,#412);
#414=PLANE('',#413);
#415=ADVANCED_FACE('',(#409),#414,.T.);
#416=ORIENTED_EDGE('',*,*,#333,.F.);
#417=ORIENTED_EDGE('',*,*,#364,.F.);
#418=ORIENTED_EDGE('',*,*,#386,.F.);
#419=ORIENTED_EDGE('',*,*,#54,.F.);
#420=ORIENTED_EDGE('',*,*,#85,.F.);
#421=ORIENTED_EDGE('',*,*,#116,.F.);
#422=ORIENTED_EDGE('',*,*,#147,.F.);
#423=ORIENTED_EDGE('',*,*,#178,.F.);
#424=ORIENTED_EDGE('',*,*,#209,.F.);
#425=ORIENTED_EDGE('',*,*,#240,.F.);
#426=ORIENTED_EDGE('',*,*,#271,.F.);
#427=ORIENTED_EDGE('',*,*,#302,.F.);
#428=EDGE_LOOP('',(#416,#417,#418,#419,#420,#421,#422,#423,#424,#425,#426,#427));
#429=FACE_OUTER_BOUND('',#428,.T.);
#430=CARTESIAN_POINT('',(3.86894493721428,-2.30988659068727,-1.05000000000000));
#431=DIRECTION('',(2.57466265550404E-32,1.00000000000000,2.10237160403850E-16));
#432=DIRECTION('',(1.00000000000000,0.00000000000000,-1.22464679914735E-16));
#433=AXIS2_PLACEMENT_3D('',#430,#431,#432);
#434=PLANE('',#433);
#435=ADVANCED_FACE('',(#429),#434,.F.);
#436=CLOSED_SHELL('',(#63,#94,#125,#156,#187,#218,#249,#280,#311,#342,#373,#395,#415,#435));
#437=MANIFOLD_SOLID_BREP('',#436);
#438=COLOUR_RGB('',1.00000000000000,0.00000000000000,0.00000000000000);
#439=FILL_AREA_STYLE_COLOUR('',#438);
#440=FILL_AREA_STYLE('',(#439));
#441=SURFACE_STYLE_FILL_AREA(#440);
#442=SURFACE_SIDE_STYLE('',(#441));
#443=SURFACE_STYLE_USAGE(.BOTH.,#442);
#444=PRESENTATION_STYLE_ASSIGNMENT((#443));
#445=STYLED_ITEM('',(#444),#437);
#446=ADVANCED_BREP_SHAPE_REPRESENTATION('',(#437,#23),#18);
#447=PRODUCT('','','',(#2));
#448=PRODUCT_DEFINITION_FORMATION_WITH_SPECIFIED_SOURCE('','',#447,.NOT_KNOWN.);
#449=PRODUCT_CATEGORY('part','');
#450=PRODUCT_RELATED_PRODUCT_CATEGORY('detail','',(#447));
#451=PRODUCT_CATEGORY_RELATIONSHIP('','',#449,#450);
#452=PRODUCT_DEFINITION('','',#448,#1);
#453=PRODUCT_DEFINITION_SHAPE('NONE','NONE',#452);
#454=SHAPE_DEFINITION_REPRESENTATION(#453,#446);
#455=PRESENTATION_LAYER_ASSIGNMENT('1','Unnamed [1]',(#437));
ENDSEC;
END-ISO-10303-21;
